Oops, an error
Loading. Please wait.

Stereo Bass Tab

10,316 views 12 this week
1 commentread comment
1 2 3 4 5
x 5
add to favorites
launch autoscroll
font size
0
reset
guitar tuner
Autoscroll
slow
fast
+/-
esc
set tempo
stop
Help us to improve Ultimate-Guitar.com Take our survey!
×
Author
I'm pretty sure this is right. it's pavement so it's a little sloppy.
  Enjoy.

  INTRO:
  G|---------------------------------|
  D|-------------5-- 44400----77744--|
  A|------7----4---------------------|
  E|----5----------------------------|

  VERSE:
  G|---------------------------------|
  D|-------5-------------------------|
  A|---7-4---------------------------|
  E|-5-------3---44400----77744------|

  PRE-CHORUS: (Hi-ho silver ride...)
  G|---------------------------------|
  D|-------5-------------------------|
  A|---7-4--------5------------------|
  E|-5-------3-----------------------|

  CHORUS:
  G|---------------------------------|
  D|---------------------------------|
  A|--------------------------5--5---|
  E|-55--55--55--55--33333333--------|

The bass drops out in the 2nd verse after, "Well you're my fact checkin' cuz." The bass 
back in shortly after to finish the verse. Typical pavement, but not too difiicult. I 
print the lyrics, but seeing as Malkmus changes them everytime he sings it doesn't seem
worth the trouble. If you really need them i'm sure you can find 'em somewhere. I think
they printed on the album sleeve.
Suggest correction
comments
print report bad tab
1 comment total.
+1 reply
godzillaslay 31 Jul 25, 2013 01:35 AM

I think the verse should be this:

G|---------------------------------|
D|-------5-----44400----77744------|
A|---7-4---------------------------|
E|-5-------3-----------------------|

Otherwise you got this spot on.

guest
You may want to rate the tab now too:
select rating
Wanna post a correction for this tab? Suggest correction