Oops, an error
Loading. Please wait.

Theme From Subway Sue tab

642 views 1 this week
4 commentsread comments
1 2 3 4 5
x 5
add to favorites
×
Save as Personal and add changes to this tab that will be seen only by you. Learn more ›
×
You can save this tab as Personal to edit and correct it or add notes. All changes will be seen only by you. Learn more »
launch autoscroll
font size
0
reset
how to read this tab
guitar tuner
edit
Autoscroll
slow
fast
+/-
esc
set tempo
stop
Author
Difficulty
                                          Artist - Pavlov's Dog
                                         ***********************
                                      Song - Theme From Subway Sue
                                     ******************************
                                        Album - Pampered Menial
                                       *************************
                                          Tabbed By - Ayreon77
                                         **********************




Distorted Guitar
*****************
 F#m               E                  D
[----------|---------------|-----------------------------]
[----------|---------------|--------------7--p-----------]
[-------s--|-------b-~-~-~-|--p-------b-6---9-6--p-------]
[------9\7-|---7-9-9-------|-9-7---7-9----------9-7----7-]
[--s-------|-9-------------|-----9------------------9----]
[-9\11-----|---------------|-----------------------------]

   A                       F#m              E                     D
            p       p       p       p       p       p
[-------5--7-5---5-7-5---5-9-5---5-7-5---5-9-5---5-7-5---5-|---5--s-]
[--s--5--------5-------5-------5-------5-------5-------5---|-7---7\-]
[-4\6------------------------------------------------------|--------]
[----------------------------------------------------------|--------]
[----------------------------------------------------------|--------]
[----------------------------------------------------------|--------]

         p
[-----2-5-2---|-2--p------------------]
[--s--------2-|---5-2--p----------b---]
[-4\6---------|-------4-2----2-4-2----]
[-------------|-----------4---------4-]
[-------------|-----------------------]
[-------------|-----------------------]

------------------------------------------------------------
VERSE 1
********
F#m         E
  Watch the mountains
    D                 A
And take off down the river
F#m             E                    D
  Well take off twice from where you are
F#m             E          D                 A
  Cause someday soon we'll take off down the river
F#m            E                 D
  And I'll see nothing of you at all

------------------------------------------------------------
VERSE 2
********
F#m        E            D                  A
  Tell the birds not to show which way I'm going
F#m                      E            D
  And tell the leaves to try and hide away
F#m                E
  We'll give 'em gold
       D             A
Oh but golds nothing special
F#m               E                D
  Tell 'em all to try and hide the way


------------------------------------------------------------
01:03
[-----2--p--------|-----------------------]
[-b-2---5-2--p----|-----b--p--------------]
[-4---------4-2---|-2-4-4-4-2---2-2-------]
[---------------4-|-----------2-----4-2-4-]
[-----------------|-----------------------]
[-----------------|-----------------------]


------------------------------------------------------------
01:12
Cleaner Guitar Sound - Play This With The Chorus Below
[-----------------------|--------------------------7----br-------]
[-----------------------|---------------------7-10---10-12-10----]
[-----------------------|-----------------6-9-----------------11-]
[------------------6--7-|----6--------7-9------------------------]
[--------6-7-8-9--------|-9-----7-7-9----------------------------]
[-7-9-10----------------|----------------------------------------]


------------------------------------------------------------
CHORUS
*******
            E
And someday soon
      A                    Bm
We'll find out where we're going
D             E
  And someday soon
               F#m    
We'll find the way
D            E             A
  And if the love that you have for me is going
D               E                 D
  Well I'll see nothing of you at all


01:30
not sure on this part. 
[----12-10-9-7-5-4-2-2-]
[---s12-10-9-7-5-4-2-2-]
[-10\12-10-9-7-5-4-2-2-]
[--------------------4-]
[--------------------4-]
[--------------------2-]

------------------------------------------------------------
BRIDGE
*******
           F#m  B
And it's a long road
  F#m                   B
A very, very, very long road
  F#m                   B
A very, very, very long road
          E
I'm doing fine
    D                A
And wishing you were mine

------------------------------------------------------------
01:49
SOLO
*****
[---p------------p------------p------------p-----------b-------------]
[-17-14---p----17-14---p----17-14---p----17-14---p----17--br---------]
[-------16-14--------16-14--------16-14--------16-14-----16-16-14-16-]
[--------------------------------------------------------------------]
[--------------------------------------------------------------------]
[--------------------------------------------------------------------]


[-------------------------------|---------------------------------------]
[---s---------------------------|---------------------------------------]
[-16\14-------------------------|---------------------------------------]
[-------16-14------s------------|---------------------------------------]
[-------------16-14\12-------12-|---h---12-12-12----12----12------12----]
[----------------------14-12----|-12-14----------14----14-----14-----14-]

                                              listen how he does this bit
[--------------------|------------------------------------------------]
[--------------------|---------------------b-r------------------------]
[--------------------|------------s----14-16---14---14---14---14---11-]
[-------------p------|---s---14-14\16---------------------------------]
[---h---12--14-12----|-14\16------------------------------------------]
[-12-14-----------14-|------------------------------------------------]


------------------------------------------------------------
VERSE 3
********
F#m               E
  Take me back to morning
D                   A
 Morning's when she calls me
F#m                   E             D
  And take me back to days of prior springs
              F#m                       E
Oooh will you take me back, And I don't care           
        D                 A
Oh your springtimes don't possess me
F#m            E                 D
  And I'll see nothing of you at all again


[-------------------------------------]
[-b-2-2--b-2-2--b-2-2--b-2-2--br------]
[-4------4------4------4------4-2-4-2-]
[-------------------------------------]
[-------------------------------------]
[-------------------------------------]


------------------------------------------------------------
CHORUS
*******
         E
AAAAhhhh Ohhhhhh
           F#m
Nothing at all

------------------------------------------------------------

BRIDGE 
*******
        D              E
She's a woman (She's a woman) 
             F#m
That left me nothing at all (Left me nothing at all)
        D             E
She's a woman (Such a lady)
                  F#m
I have nothing at all (I have nothing at all)
         D                 E
When I'm leaving...I leave soon
F#m                          D     E
  Well I'm leaving Nooo Ahhh Ahhh
           F#m
Nothing at all
                        D
And I got nothing at all
       E
I have nothing
           F#m
Nothing at allllllll
D             E
No, I've have nothing
               F#m
Got nothing at allllllll

D  E
   I have nothing
           F#m
Nothing at allllllll
    D
Got no
    E
Got no
    F#m
Ohh Nothing, Nothing
    D
Got no
    E
Got no
    F#m
Ohh Ohhhh 
          D
Ahhhhhhh  Ahhh
    E
Got nothing
               F#m         D
Got nothing at allllllllll llllll
    E
Got nothing
           F#m
Nothing at all.


[--------]
[--------]
[-----p--]
[-4--7-4-]
[--------]
[--------]


A nice Track, difficult in places. Enjoy..............

            
            
Suggest correction
Creating personal tab
Creating personal tab
You can edit any tab online and save it as your Personal.

You can edit, replace or remove any tab part or add personal notes – all changes will be seen only by you.

Personal tabs can be accessed anytime from any device, even offline.
Learn more »
comments
print report bad tab
4 comments total. Showing first comments.
0 reply
xonty 595 Dec 29, 2013 01:12 AM

Great tab!! :) Just one little thing though:

F#m Bm
And it's a long road
F#m Bm
A very, very, very long road
F#m Bm
A very, very, very long road

These Bm's should just be B (major) :)

0 reply
ayreon77 21,833 Dec 29, 2013 04:52 AM

yea you were right, i have changed it and thx for the comment :)

0 reply
frankowillo 60,873 May 22, 2014 05:28 PM

Sounds just about right, but wondering if there should be an F#m on the 2nd "going" in the 5th line of the chorus.

guest
You may want to rate the tab now too:
select rating
Wanna post a correction for this tab? Suggest correction