Oops, an error
Loading. Please wait.

Alone Acoustic tab

by Paws
118 views 9 this week
no commentswrite comment
1 2 3 4 5
2 more votes to show rating
add to favorites
×
Save as Personal and add changes to this tab that will be seen only by you. Learn more ›
×
You can save this tab as Personal to edit and correct it or add notes. All changes will be seen only by you. Learn more »
launch autoscroll
font size
0
reset
how to read this tab
guitar tuner
edit
Autoscroll
slow
fast
+/-
esc
set tempo
stop
Author
Difficulty
Acoustic version that Phillip Taylor played for Post Nothing,
inside  Edinburgh College of Art, back in 2014


[Verse]

e|--5--4--9---5--5--5--|
B|--5--4--10--7--6--5--|
G|--6--5--11--7--7--6--|
D|--7--6--11--5--7--7--|
A|--7--6--9---5--5--7--|
E|--5--4--9---5--5--5--|

Is it fear or is it my true belief
That I'll be alone?
Forever alone
The lights are off but I'm still home
Hope didn't fade, I killed it dead then I dug a grave
Shallow grave
I've known love so fuck you
If you think that I'm too young
To think that I might not know another one


[Bridge]

e|--5-5-5-----3-3-3-----1-1-1-----0-----|
B|--5-5-7-----3-3-3-----1-1-1-----0-----|
G|--6-7-6-----4-5-4-----2-3-2-----1-----|
D|--7-5-7-----5-3-5-----3-1-3-----2-----|
A|--7-7-7-----5-5-5-----3-3-3-----2-----|
E|--5-5-5-----3-3-3-----1-1-1-----0-----|

If you're alone, alone, alone, alone


[Chorus]

e|--5--7--5--|
B|--5--8--5--|
G|--6--9--7--|
D|--7--9--7--| x3
A|--7--7--5--|
E|--5--7--5--|
Alone


[Bridge]

e|--5-5-5-----3-3-3-----1-1-1-----0-----|
B|--5-5-7-----3-3-3-----1-1-1-----0-----|
G|--6-7-7-----4-5-4-----2-3-2-----1-----|
D|--7-5-6-----5-3-5-----3-1-3-----2-----|
A|--7-7-5-----5-5-5-----3-3-3-----2-----|
E|--5-5-5-----3-3-3-----1-1-1-----0-----|

If you're alone, alone, alone, alone


[Verse]

e|--5--4--9---5--5--5--|
B|--5--4--10--7--6--5--|
G|--6--5--11--7--7--6--|
D|--7--6--11--5--7--7--|
A|--7--6--9---5--5--7--|
E|--5--4--9---5--5--5--|

He's got a gun, he likes the taste of metal in his mouth
He's not the only one
Cut up that noose, why should you care about what the others think?
Fuck what the others think
When you die, you're gone, you're dust, there's no use for ya
Why would you wanna go to your own funeral...


[Bridge]

e|--5-5-5-----3-3-3-----1-1-1-----0-----|
B|--5-5-7-----3-3-3-----1-1-1-----0-----|
G|--6-7-7-----4-5-4-----2-3-2-----1-----|
D|--7-5-6-----5-3-5-----3-1-3-----2-----|
A|--7-7-5-----5-5-5-----3-3-3-----2-----|
E|--5-5-5-----3-3-3-----1-1-1-----0-----|

If you're alone?


[Outro]

            x4
e|--0--7--5--|--0--0--0--0--|
B|--5--8--5--|--5--3--1--2--|
G|--6--9--7--|--6--4--2--2--|
D|--7--9--7--|--7--5--3--1--|
A|--0--7--5--|--0--0--0--0--|
E|--0--7--5--|--0--0--0--0--|

            
            
Suggest correction
Creating personal tab
Creating personal tab
You can edit any tab online and save it as your Personal.

You can edit, replace or remove any tab part or add personal notes – all changes will be seen only by you.

Personal tabs can be accessed anytime from any device, even offline.
Learn more »
Give kudos to tab author, rate the tab!
1 2 3 4 5
comments
print report bad tab
guest
You may want to rate the tab now too:
select rating
Wanna post a correction for this tab? Suggest correction