Oops, an error
Loading. Please wait.

Sore Tummy tab

version 2
version 2

Whole song

by Paws
292 views 6 this week
no commentswrite comment
1 2 3 4 5
1 last vote to show rating
add to favorites
×
Save as Personal and add changes to this tab that will be seen only by you. Learn more ›
×
You can save this tab as Personal to edit and correct it or add notes. All changes will be seen only by you. Learn more »
launch autoscroll
font size
0
reset
how to read this tab
guitar tuner
edit
Autoscroll
slow
fast
+/-
esc
set tempo
stop
Author
Difficulty
[Verse 1]

e|------------------------------------------------|
B|------------------------------------------------|
G|------------------------------------------------|
D|--9-11-11-9-9-9---------------------------------|
A|--0-0--0--0-0-0-9-11-11-11-11-11-11-11-11-------|
E|----------------0-0--0--0--0--0--0--0--0--------|
You don't know what I want

e|------------------------------------------------|
B|------------------------------------------------|
G|------------------------------------------------|
D|--9-11-11-9-9-9---------------------------------|
A|--0-0--0--0-0-0-9-11-11-11-11-11-11-9-7---------|
E|----------------0-0--0--0--0--0--0--0-0---------|
You don't know anything

e|------------------------------------------------|
B|------------------------------------------------|
G|------------------------------------------------|
D|--9-11-11-9-9-9---------------------------------|
A|--0-0--0--0-0-0-9-11-11-11-11-11-11-11-11-------|
E|----------------0-0--0--0--0--0--0--0--0--------|
The doctors don't know anything
          B/F#       A/E
It's not right, not right


[Verse 2]

e|------------------------------------------------|
B|------------------------------------------------|
G|------------------------------------------------|
D|--9-11-11-9-9-9---------------------------------|
A|--0-0--0--0-0-0-9-11-11-11-11-11-11-11-11-------|
E|----------------0-0--0--0--0--0--0--0--0--------|
Scream out loud, kick the wall

e|------------------------------------------------|
B|------------------------------------------------|
G|------------------------------------------------|
D|--9-11-11-9-9-9---------------------------------|
A|--0-0--0--0-0-0-9-11-11-11-11-11-11-9-7---------|
E|----------------0-0--0--0--0--0--0--0-0---------|
Will you run when I call?

e|------------------------------------------------|
B|------------------------------------------------|
G|------------------------------------------------|
D|--9-11-11-9-9-9---------------------------------|
A|--0-0--0--0-0-0-9-11-11-11-11-11-11-11-11-------|
E|----------------0-0--0--0--0--0--0--0--0--------|
The doctors don't know anything

          B/F#       A/E
It's not right, not right


[Chorus]

         G#4                  B4
Well, my belly sure does hurt me
         B                  A
But it's okay 'cause I feel damn alive
    G#4                        B4
The contractions come and go like a birth
         B                      A
But if a baby's on the way, I'd be surprised
F#/C#     A/E
Be surprised


[Verse 3]

e|------------------------------------------------|
B|------------------------------------------------|
G|------------------------------------------------|
D|--9-11-11-9-9-9---------------------------------|
A|--0-0--0--0-0-0-9-11-11-11-11-11-11-11-11-------|
E|----------------0-0--0--0--0--0--0--0--0--------|
He looks like a junkie sometimes

e|------------------------------------------------|
B|------------------------------------------------|
G|------------------------------------------------|
D|--9-11-11-9-9-9---------------------------------|
A|--0-0--0--0-0-0-9-11-11-11-11-11-11-9-7---------|
E|----------------0-0--0--0--0--0--0--0-0---------|
But junkies have beautiful eyes

e|------------------------------------------------|
B|------------------------------------------------|
G|------------------------------------------------|
D|--9-11-11-9-9-9---------------------------------|
A|--0-0--0--0-0-0-9-11-11-11-11-11-11-11-11-------|
E|----------------0-0--0--0--0--0--0--0--0--------|
The doctors don't know anything

          B/F#       A/E
It's not right, not right


[Verse 4]

e|------------------------------------------------|
B|------------------------------------------------|
G|------------------------------------------------|
D|--9-11-11-9-9-9---------------------------------|
A|--0-0--0--0-0-0-9-11-11-11-11-11-11-11-11-------|
E|----------------0-0--0--0--0--0--0--0--0--------|
You're all tired of hearing me

e|------------------------------------------------|
B|------------------------------------------------|
G|------------------------------------------------|
D|--9-11-11-9-9-9---------------------------------|
A|--0-0--0--0-0-0-9-11-11-11-11-11-11-9-7---------|
E|----------------0-0--0--0--0--0--0--0-0---------|
Talk about sore tummy

e|------------------------------------------------|
B|------------------------------------------------|
G|------------------------------------------------|
D|--9-11-11-9-9-9---------------------------------|
A|--0-0--0--0-0-0-9-11-11-11-11-11-11-11-11-------|
E|----------------0-0--0--0--0--0--0--0--0--------|
The doctors don't know anything

          B/F#       A/E
It's not right, not right


[Chorus]
         G#4                  B4
Well, my belly sure does hurt me
         B                  A
But it's okay 'cause I feel damn alive
    G#4                        B4
The contractions come and go like a birth
         B                      A
But if a baby's on the way, I'd be surprised
F#/C#     A/E
Be surprised
F#/C#     A/E
'Ised


[Bridge]

e|----------------------------------------------------------------|
B|----14----14----14----14----14----------------------------------|
G|--16----16----16----16----16----16--13-13-13-13-13-13-13-13-13--|
D|----------------------------------------------------------------|
A|----------------------------------------------------------------|
E|----------------------------------------------------------------|

e|----------------------------------------------------------------|
B|----14----14----14----14----14----------------------------------|
G|--16----16----16----16----16----16--13-13-13-13-13-16-16-16-16--|
D|----------------------------------------------------------------|
A|----------------------------------------------------------------|
E|----------------------------------------------------------------|


[Outro]

e|--------------|
B|--------------|
G|--13----16----|
D|--14----14----| x5
A|--------------|
E|--------------|

F#/C#     A/E
Be surprised
F#/C#     A/E
'Ised

F#/C#     A/E
Be surprised
F#/C#     A/E
'Ised




Chords

   F#/C#  A/E  B/F#   G#4    B4    B     A
e|---------------------4-----7-----7-----5-------|
B|---------------------4-----7-----7-----5-------|
G|---3-----6-----8-----6-----9-----8-----6-------|
D|---4-----7-----9-----6-----9-----9-----7-------|
A|---4-----7-----9-----4-----7-----9-----7-------|
E|---------------------4-----7-----7-----5-------|

            
            
Suggest correction
Creating personal tab
Creating personal tab
You can edit any tab online and save it as your Personal.

You can edit, replace or remove any tab part or add personal notes – all changes will be seen only by you.

Personal tabs can be accessed anytime from any device, even offline.
Learn more »
Give kudos to tab author, rate the tab!
1 2 3 4 5
comments
print report bad tab
guest
You may want to rate the tab now too:
select rating
Wanna post a correction for this tab? Suggest correction