Oops, an error
Loading. Please wait.

Butterfly Soars tab

457 views 1 this week
no commentswrite comment
1 2 3 4 5
3 more votes to show rating
add to favorites
×
Save as Personal and add changes to this tab that will be seen only by you. Learn more ›
×
You can save this tab as Personal to edit and correct it or add notes. All changes will be seen only by you. Learn more »
launch autoscroll
font size
0
reset
how to read this tab
guitar tuner
edit
Autoscroll
slow
fast
+/-
esc
set tempo
stop
Song: Butterfly Soars
Artist: Pay Money To My Pain
Tuning: Drop Bb/A# Bb F Bb Eb G C

This was tabbed by ear pretty much- I'm not fully sure about the main riff and also the lead part in the
chorus as it is hard to make out the notes. Overall, a pretty straight-forward song but still worth 
listening to the actual song for the rhythm- enjoy... 

[Intro] (00:03):
C |-------------------------------|
G |-------------------------------|
Eb|-------------------------------|
Bb|---------3h5--7-----------3-2--|
F |--0--8p7------5-0-----5p3------|
Bb|--0-------------0-3p2----------| x2

[Verse 1] (00:11):
C |----------------------------|
G |----------------------------|
Eb|----------------------------|
Bb|-------3h5-------------3-2--|
F |-0-8p7-----5-0-----5p3------|
Bb|-0-----------0-3p2----------| x3 

C |------------------|
G |------------------|
Eb|------------------|
Bb|---------3h5------|
F |--0--8p7------5-0-|
Bb|--0-------------0-|

[Chorus] (00:25):
Guitar 1:
C |----------------------------------------------------------------------|
G |----------------------------------------------------------------------|
Eb|----------------------------------------------------------------------|
Bb|----------------------------------------------------------------------|
F |--8-8-8-8-8-8-8-8-0-0-0-0-3-3-3-3-8-8-8-8-10-10-10-10-7-7-7-7-0-0-0-0-|
Bb|--8-8-8-8-8-8-8-8-0-0-0-0-3-3-3-3-8-8-8-8-10-10-10-10-7-7-7-7-0-0-0-0-| 

C |------------------------------------------------------|
G |------------------------------------------------------|
Eb|------------------------------------------------------|
Bb|------------------------------------------------------|
F |--8-8-8-8-8-8-8-8-0-0-0-0-3-3-3-3-8-8-8-8-10-10-10-10-|
Bb|--8-8-8-8-8-8-8-8-0-0-0-0-3-3-3-3-8-8-8-8-10-10-10-10-|

Guitar 2:
C |--------------------------|
G |--18/20-18----18----18----|
Eb|-----------15----15----15-|
Bb|--------------------------|
F |--------------------------|
Bb|--------------------------| Repeated throughout the chorus

Repeat intro x1 (00:52)

[Pre-verse] (00:56):
C |---------------------------------|
G |---------------------------------|
Eb|---------------------------------|
Bb|---------3h5--7------------------|
F |--0--8p7------5-0-0-0--0--0--0-0-|
Bb|--0-------------0-0-0--0--0--0-0-|
                     - -  -  -
Repeat the main verse part x2 (00:59)

[Verse 2 Pt. 2] (01:07):
C |-----------------||---------------------||
G |-----------------||---------------------||
Eb|-----------------||---------------------||
Bb|-----------------||---------------------||
F |--0-0--0--0--0-0-||-0-0--0-0--0--0--0-0-||
Bb|--0-0--0--0--0-0-||-0-0--0-0--0--0--0-0-|| Second section x3

Repeat chorus (01:22)

[Bridge] (01:49):
C |----------------------------------------------------------|
G |----------------------------------------------------------|
Eb|----------------------------------------------------------|
Bb|----------------------------------------------------------|
F |----------------------------------------------------------|
Bb|--0-0-0-0-0-0--0-0-0-0--0-0-0-0--0-0-0-0--7-7-7-7-7-7-7-7-| x7

C |-----------------------------------|
G |-----------------------------------|
Eb|-----------------------------------|
Bb|-----------------------------------|
F |---------------------------------0-|
Bb|--0-0-0-0-0-0--0-0-0-0--0-0-0-0--0-| 

Repeat chorus (02:19)

Repeat intro x3 (02:45)

[Outro] (02:56):
C |------------------|
G |------------------|
Eb|------------------|
Bb|---------3h5--7---|
F |--0--8p7------5-0-|
Bb|--0-------------0-|

Thanks for taking the time to check this out. Feedback and constructive criticism is always appreciated

****************************
Legend:
h: hammer-on 
p: pull-off  
-: palm mute
****************************

            
            
Suggest correction
Creating personal tab
Creating personal tab
You can edit any tab online and save it as your Personal.

You can edit, replace or remove any tab part or add personal notes – all changes will be seen only by you.

Personal tabs can be accessed anytime from any device, even offline.
Learn more »
Give kudos to tab author, rate the tab!
1 2 3 4 5
comments
print report bad tab
guest
You may want to rate the tab now too:
select rating
Wanna post a correction for this tab? Suggest correction