Oops, an error
Loading. Please wait.

Angin Pujaan Hujan solo tab

version 1
version 1

Solo

  • Based on live version and easier to play with acoustic guitar.

Interactive

2,824 views 111 this week
no commentswrite comment
1 2 3 4 5
1 last vote to show rating
add to favorites
×
Save as Personal and add changes to this tab that will be seen only by you. Learn more ›
×
You can save this tab as Personal to edit and correct it or add notes. All changes will be seen only by you. Learn more »
launch autoscroll
font size
0
reset
how to read this tab
guitar tuner
edit
Autoscroll
slow
fast
+/-
esc
set tempo
stop
Author
Difficulty
About this tab version
Based on live version and easier to play with acoustic guitar. Was this info helpful? Yes No
This version is based off the live version. The original version use higher notes,but i find it harder to  
play the solo part on acoustic guitar. So i made this one so that you can play it easier on acoustic guitar.
here's the link to the video: https://www.youtube.com/watch?v=dLdYBylV37Q

[Interlude]
e|-7-4-7-4---4-----------------------|-7-4-7-4-------8-8-8-7-5-----------------7-----7-9s11-7-9---7---------|
B|---------7---7-5---5-----5-7s8-7-5-|---------7-5-------------5-7-7s9-7-5-7s9---7-9------------9---9-9-7-5-|
G|-----------------6---4-6-----------|----------------------------------------------------------------------|
D|-----------------------------------|----------------------------------------------------------------------|
A|-----------------------------------|----------------------------------------------------------------------|
E|-----------------------------------|----------------------------------------------------------------------|

e|--------------------------------------|-7-4-7-4---4-----------------------|-7s9-7-7-4s7-7-7-5-5-4-4-2-2--|
B|-7---5---5--------5-7-7s8-8-7-8-7-5---|---------7---7-5---5-----5-7s8-7-5-|------------------------------|
G|---6---4---6--4-6---------------------|-----------------6---4-6-----------|------------------------------|
D|--------------------------------------|-----------------------------------|------------------------------|
A|--------------------------------------|-----------------------------------|------------------------------|
E|--------------------------------------|-----------------------------------|------------------------------|

e|-0h2-0-|-0-2s4-7-4-7-9-9s11-7-9---7---|-----------------------------------------|
B|-------|------------------------9---9-|-9-7-5-7---5---5--------5-7-7s8-8-7-8-7-5|
G|-------|------------------------------|---------6---4---6--4-6------------------|
D|-------|------------------------------|-----------------------------------------|
A|-------|------------------------------|-----------------------------------------|
E|-------|------------------------------|-----------------------------------------|


***********************************

| h   Hammer-on
| s   Slide-up

***********************************













            
            
Suggest correction
Creating personal tab
Creating personal tab
You can edit any tab online and save it as your Personal.

You can edit, replace or remove any tab part or add personal notes – all changes will be seen only by you.

Personal tabs can be accessed anytime from any device, even offline.
Learn more »
Give kudos to tab author, rate the tab!
1 2 3 4 5
comments
print report bad tab
guest
You may want to rate the tab now too:
select rating
Wanna post a correction for this tab? Suggest correction