Oops, an error
Loading. Please wait.

1998 Delicious Bass

by Peace
2,423 views 15 this week
2 commentsread comments
1 2 3 4 5
x 3
add to favorites
launch autoscroll
font size
0
reset
guitar tuner
×
Best way to learn
"1998 Delicious"
Autoscroll
slow
fast
+/-
esc
set tempo
stop
Difficulty
intermediate
Song:1998(Delicious)
Band:Peace
Album:EP Delicious
Tabbed by George


0.34:

E|9-------|--------|--------|--------|
A|--------|--------|--11----|--------|
D|--------|11--9-11|9-----9-|11------|
G|--------|--------|--------|--------|

 |0-------|--------|--------|--------|
 |--------|7-6-----|4-------|2-------|
 |--------|--------|--------|--------|
 |--------|--------|--------|--------|

 |0-------|--------|--------|--------|
 |--------|7-6-----|4-------|2-------|
 |--------|--------|--------|--------|
 |--------|--------|--------|--------|

 |4-------|--------|--------|--------|
 |--------|--------|---6----|--------|
 |--------|6----4-6|4-----4-|6-------|
 |--------|--------|--------|--------|

 x (6)
____________________________________________________________________________

 |9(hold this section)-|------11|12------|
 |--------|------------|--------|--------|
 |--------|------------|--------|--------|
 |--------|------------|--------|--------|

 |--------|12----------|--------|--------|
 |--------|-------9----|11------|--------|
 |--------|------------|--------|--------|
 |--------|------------|--------|--------|

 |9-0-9-0-9-0-9-0-9-0-9-0-11-0-11-----|
 |------------------------------------|
 |------------------------------------|
 |------------------------------------|

 |0-12-0-12-0-12-0-12-0-12-0-12-0-12-0-12--|
 |-----------------------------------------|
 |-----------------------------------------|
 |-----------------------------------------|

 |0-12-0-12-0-12-0-12-0-12-0-12--------|
 |------------------------------9-0-9-0|
 |-------------------------------------|
 |-------------------------------------|

 |-------------------------------------|
 |11-0-11-0-11-0-11-0-11-0-11-0-11-0---|
 |-------------------------------------|
 |-------------------------------------|

 x (4)

 |9-9-7-9-|9-9-7-9-|11-12-12-11-12|12-12-11-12|
 |--------|--------|--------------|-----------|
 |--------|--------|--------------|-----------|
 |--------|--------|--------------|-----------|

 |------------|----------|----------------|----------|
 |9-11-11-9-11|11-11-9-11|----------------|----------|
 |------------|----------|-9-11-11-9-11---|11-11-9-11|
 |------------|----------|----------------|----------|
_____________________________________________________________________________

E|9-------|--------|--------|--------|
A|--------|--------|--11----|--------|
D|--------|11--9-11|9-----9-|11------|
G|--------|--------|--------|--------|

 |0-------|--------|--------|--------|
 |--------|7-6-----|4-------|2-------|
 |--------|--------|--------|--------|
 |--------|--------|--------|--------|

 |4-------|--------|--------|--------|
 |--------|--------|---6----|--------|
 |--------|6----4-6|4-----4-|6-------|
 |--------|--------|--------|--------|

 |9-------|--------|--------|--------|
 |--------|--------|--11----|--------|
 |--------|11--9-11|9-----9-|11------|
 |--------|--------|--------|--------|
 x (a few)

 This isn't all right but I can't be arsed.
 Doesn't includes the slides and breakdown bits, boss song regardless
Suggest correction
Give kudos to tab author, rate the tab!
1 2 3 4 5
comments
print report bad tab
2 comments total.
0 reply
thinkinggrapes 10 Jul 21, 2014 08:04 AM

Lack of formatting. Lack of accuracy. Tab incomplete.

guest
You may want to rate the tab now too:
select rating
Wanna post a correction for this tab? Suggest correction