Oops, an error
Loading. Please wait.

1998 Delicious Tab

43 views 3 this week
no commentswrite comment
1 2 3 4 5
2 more votes to show rating
add to favorites
launch autoscroll
font size
0
reset
how to read this tab
guitar tuner
Autoscroll
slow
fast
+/-
esc
set tempo
stop
Help us to improve Ultimate-Guitar.com Take our survey!
×
Author
Difficulty
novice
----------------------
1998 Delicious - Peace
----------------------

Submitted by: Charlie Mountain
Tuning: Standard

This is for the guitar solo about 5 minutes into the song, I was just playing around may not be entirely
accurate but who cares sounds pretty similar, its only the beginning so play about with it.

e|---------------------------------------------------------------------------|
B|------------5------------------5-------------------------------------------|
G|--6-9---4-6---6-4-6-6b-4---4-6---6-4-6-6b-4-------4------------------------|
D|----------------------------------------------4-6---6-4--------------------|
A|--------------------------------------------------------4------------------|
E|---------------------------------------------------------------------------|
Suggest correction
Give kudos to tab author, rate the tab!
1 2 3 4 5
comments
print report bad tab
guest
You may want to rate the tab now too:
select rating
Wanna post a correction for this tab? Suggest correction