Oops, an error
Loading. Please wait.

Bloodshake Bass Tab

3,915 views 6 this week
no commentswrite comment
1 2 3 4 5
excellent!
x 3
add to favorites
launch autoscroll
font size
0
reset
guitar tuner
Autoscroll
slow
fast
+/-
esc
set tempo
stop
Help us to improve Ultimate-Guitar.com Take our survey!
×
Author
Difficulty
novice
Bloodshake Bass Tab®

G|-----------------------------------------------------|
D|-----------------------------------------------------|
A|-------------10(x3)-10-----------10------------------|
E|--8(x3)-8---------------12(x3)------10(x3)-----------|

x2
G|------------------------------------------------------------------|
D|------------------------------------------------------------------|
A|-------------10(x3)-10-----------10-----------10-12-14------------|
E|--8(x3)-8---------------12(x3)------10(x3)------------------------|

G|-------------------------------------------------|
D|-------------------------------------------------|
A|-------------10(x3)-10-----------10--------------|
E|--8(x3)-8---------------12(x3)------10-----------|

x3
G|-----------------------------------------------------|
D|-----------------------------------------------------|
A|-------------10(x3)-10-----------10------------------|
E|--8(x3)-8---------------12(x3)------10(x3)-----------|

G|------------------------------------------------|
D|------------------------------------------------|
A|-------------10(x3)-10-----------10-------------|
E|--8(x3)-8---------------12(x3)------10----------|

G|-----------------------------------------------------|
D|-----------------------------------------------------|
A|-----------------------------------------------------|
E|--8(x8)-10(x8)-8(x8)-10(x8)/12-----------------------|

G|--------------------------------------------|
D|--------------------------------------------|
A|--------------------------------------------|
E|--8(x8)-10(x8)/12-8(x8)-10(x7)--------------|

G|-----------------------------------------------------|
D|-----------------------------------------------------|
A|-------------10(x3)-10-----------10------------------|
E|--8(x3)-8---------------12(x3)------10(x3)-----------|

G|-------------------------------------------------|
D|-------------------------------------------------|
A|-------------10(x3)-10-----------10--------------|
E|--8(x3)-8---------------12(x3)------10-----------|

G|------------------------------------------------------------------|
D|------------------------------------------------------------------|
A|-------------10(x3)-10-----------10-----------10-12-14------------|
E|--8(x3)-8---------------12(x3)------10(x3)------------------------|

G|-------------------------------------------------|
D|-------------------------------------------------|
A|-------------10(x3)-10-----------10--------------|
E|--8(x3)-8---------------12(x3)------10-----------|

G|-----------------------------------------------------|
D|-----------------------------------------------------|
A|-----------------------------------------------------|
E|--8(x8)-10(x8)-8(x8)-10(x8)/12-----------------------|

G|--------------------------------------------|
D|--------------------------------------------|
A|--------------------------------------------|
E|--8(x8)-10(x8)/12-8(x8)-10(x8)--------------|

x4
G|---------------------------------------|
D|---------------------------------------|
A|---------------------------------------|
E|--8(x2)-7(x3)-5(x3)-3(x3)-0------------|

x3
G|-------------------------------------------------|
D|-------------------------------------------------|
A|-------------------------------------------------|
E|--8(x2)-7(x3)-5(x3)-3(x3)-0--12(x8)--------------|

x2
G|--------------------------------------------|
D|--------------------------------------------|
A|--------------------------------------------|
E|--8(x2)-7(x3)-5(x3)-3(x3)-0--10-------------|

G|---------------------------------------|
D|---------------------------------------|
A|---------------------------------------|
E|--8(x2)-7(x3)-5(x3)-3(x3)-0------------|
Suggest correction
Give kudos to tab author, rate the tab!
1 2 3 4 5
comments
print report bad tab
guest
You may want to rate the tab now too:
select rating
Wanna post a correction for this tab? Suggest correction