Oops, an error
Loading. Please wait.

Bloodshake Tab

version 1
version 1

Whole song

21,273 views 57 this week
1 commentread comment
1 2 3 4 5
accurate
x 15
add to favorites
launch autoscroll
font size
0
reset
how to read this tab
guitar tuner
Autoscroll
slow
fast
+/-
esc
set tempo
stop
Help us to improve Ultimate-Guitar.com Take our survey!
×
Author
Difficulty
novice
VERSE

GUITAR 1:

|12-12---10-10-10--7-7-7----------|------7-------------7-------------|
|-------------------------10-8-8--|8h10----------8h10----------------|
|---------------------------------|---------9-------------9--9--7--9-|
|---------------------------------|----------------------------------|
|---------------------------------|----------------------------------|
|---------------------------------|----------------------------------|

GUITAR 2:

|---------------------------------|-------12---------0-0-0--12-------|
|---------------------------------|8-8-8-----12----------------12----|
|---------------4--4-4s7--7-7-----|----------------------------------|
|2--2-2s4--4-4--------------------|----------------------------------|
|---------------------------------|----------------------------------|
|---------------------------------|----------------------------------|

BASS:

|---------------------------------|----------------------------------|
|---------------------------------|----------------------------------|
|----------------10---10---10-----|7---7---7-------------------------|
|8---8---8------------------------|-----------------10---10---10-----|

CHORUS

GUITAR 1:

|---------------------------------|----------------------------------|
|---------------------------------|----------------------------------|
|9-9-9-9-9-9-9-9-9-9-9-9-9-9-9-9--|7-7-7-7-7-7-7-7-7-7-7-7-7-7-7-7---|
|---------------------------------|----------------------------------|
|---------------------------------|----------------------------------|
|---------------------------------|----------------------------------|
(Yes, those are 12's 11's and 10's below)
|---------------------------------|----------------------------------|
|8-8-8-8-8-8-8-8-8-8-8-8-8-8-8-8--|1010101010101010--10101010101010--|
|9-9-9-9-9-9-9-9-9-9-9-9-9-9-9-9--|1212121212121212-1111111111111111-|
|---------------------------------|----------------------------------|
|---------------------------------|----------------------------------|
|---------------------------------|----------------------------------|

GUITAR 2:

|---------------------------------|----------------------------------|
|131210--131210--131210--131210---|131210--131210--131210--131210----|
|------12------12------12------12-|------12------12------12------12--|
|---------------------------------|----------------------------------|
|---------------------------------|----------------------------------|
|---------------------------------|----------------------------------|

BASS

|---------------------------------|----------------------------------|
|---------------------------------|----------------------------------|
|---------------------------------|----------------------------------|
|8---8---8---8---8---8---8---8----|10--10--10--10--10--10--10--10----|


BRIDGE (BUILD UP)

BASS

|----------------------------------------|
|----------------------------------------|
|----------------------------------------|
|8--8--7--7--7--5--5--5--3--3--3--3--3p0-|

GUITAR 1

|12-12-10-10-10-7-7-7-------------|12-12-10-10-10-7-7-7--------------|
|---------------------10-8-8-8h10-|---------------------10-8-8-8-----|
|---------------------------------|------------------------------9---|
|---------------------------------|----------------------------------|
|---------------------------------|----------------------------------|
|---------------------------------|----------------------------------|

GUITAR 2

|---------------------------------|----------------------------------|
|---------------------------------|12--12--12--12--12--12--12--12----|
|9---9---9---9---9---9---9---9----|----------------------------------|
|---------------------------------|----------------------------------|
|---------------------------------|----------------------------------|
|---------------------------------|----------------------------------|

BRIDGE (EPIC BIT)

GUITAR 1 (Same as verse, a few variants on a few notes but you can add them as you please):

|12-12---10-10-10--7-7-7----------|------7-------------7-------------|
|-------------------------10-8-8--|8h10----------8h10----------------|
|---------------------------------|---------9-------------9--9--7--9-|
|---------------------------------|----------------------------------|
|---------------------------------|----------------------------------|

GUITAR 2 CHORDS (These are played sharply and then tremolo picked super fast over and
over as the whole song escalates, listen to recording for timings):

|17 CHORD 1
|17
|16
|X
|X
|X

|15 CHORD 2
|17
|16
|X
|X
|X

|19 CHORD 3
|17
|16
|X
|X
|X

At one point the e-string slides all the way up to 20, if you're familiar with the
recording you should be able to pick out and play this as you please. 
Suggest correction
comments
print report bad tab
1 comment total.
0 reply
RaeMaureen 32 wrote on November 6 2014, 04:04 pm

It may not all be entirely accurate but well done for doing all the parts!

guest
You may want to rate the tab now too:
select rating
Wanna post a correction for this tab? Suggest correction