Oops, an error
Loading. Please wait.

California Daze Tab

version 1
version 1

Intro

Whole song

Interactive

14,510 views 18 this week
no commentswrite comment
1 2 3 4 5
excellent!
x 12
add to favorites
launch autoscroll
font size
0
reset
how to read this tab
guitar tuner
Tab Pro tools
  • play this tab
  • loop segment
  • change instrument
  • show fretboard
  • metronome
×
Best way to learn
"California Daze"
Autoscroll
slow
fast
+/-
esc
set tempo
stop
Contributor
Difficulty
novice
-------------------------------------------------------------------------------
                             Peace - California Daze
-------------------------------------------------------------------------------
Tuning: Standard

Rhythm:

e|-----------------------------------------------x---x-0------------|
B|---------------------------------------------7-x---x-0------------|
G|-------9-----------9-----------9-9---7--6----7-x-6-x-1-/2-2-/4/6--|
D|----11----------11----------11---11--9--7----7-x-7-x-2------------|
A|-12------12--11------11--10------------------5-x-7-x-2------------|
E|-----------------------------------------------x-5-x-0------------|

Lead:

e|------------------------------------------------------------------|
B|------17/---------14/---------17-17-15-14-15----------------------|
G|---------------------------------------------17/-14/-/13-13-14-16-|
D|------------------------------------------------------------------|
A|------------------------------------------------------------------|
E|------------------------------------------------------------------|


Rhythm is played twice, the lead comes in the second time.

EDIT, two years on I've noticed when tabbing this I'd accidentally tabbed the lead on the e and B strings rather than the B and G. Even though I was playing it on the B and G, so that was rather stupid of me.
comments
print report bad tab
I want to post or [tab]
guest
You may want to rate the tab now too:
select rating
Please do not post tabs as comments. Select "correction" instead!