Oops, an error
Loading. Please wait.

California Daze tab

version 4
version 4

Whole song

Interactive

by Peace
109 views 1 this week
no commentswrite comment
1 2 3 4 5
1 last vote to show rating
add to favorites
×
Save as Personal and add changes to this tab that will be seen only by you. Learn more ›
×
You can save this tab as Personal to edit and correct it or add notes. All changes will be seen only by you. Learn more »
launch autoscroll
font size
0
reset
how to read this tab
guitar tuner
edit
Autoscroll
slow
fast
+/-
esc
set tempo
stop
Author
[Intro

e|------------------------------------------5-x---x-0-----------------------------|
B|------------------------------------------5-x---x-0-----------------------------|
G|------9-----------9-----------9--9---7--6-7-x-6-x-1-2-2-/4/6--------------------|
D|----11---------11----------11----11--9--7-7-x-7-x-2-----------------------------|
A|-12-----12--11------11--10-----10---------7-x-7-x-2-----------------------------|
E|------------------------------------------5-x-5-x-0-----------------------------|

e|-----------------------------------------5-x---x-0------------------------------|
B|-----------------------------------------5-x---x-0------------------------------|
G|------9-----------9-----------9-9---7--6-7-x-6-x-1-2-2-/4/6---------------------|
D|----11---------11----------11---11--9--7-7-x-7-x-2------------------------------|
A|-12-----12--11------11--10---------------7-x-7-x-2------------------------------|
E|-----------------------------------------5-x-5-x-0------------------------------|


[Verse 1]

 Here's one for the diamonds in the dark ( California Daze)
 And all the people in the park (never feels the same}

e|-----------------------------------------5-x---x-0------------------------------|
B|-----------------------------------------5-x---x-0------------------------------|
G|------9-----------9-----------9-9---7--6-7-x-6-x-1-2-2-/4/6---------------------|
D|----11---------11----------11---11--9--7-7-x-7-x-2------------------------------|
A|-12-----12--11------11--10---------------7-x-7-x-2------------------------------|
E|-----------------------------------------5-x-5-x-0------------------------------|

  
Especially for the amblers in the gloom(it's the darkest gloom)
 And all the feathers feeling blue

e|-----------------------------------------5-x---x-0------------------------------|
B|-----------------------------------------5-x---x-0------------------------------|
G|------9-----------9-----------9-9---7--6-7-x-6-x-1------------------------------|
D|----11---------11----------11---11--9--7-7-x-7-x-2------------------------------|
A|-12-----12--11------11--10---------------7-x-7-x-2------------------------------|
E|-----------------------------------------5-x-5-x-0------------------------------|


[Chorus]

Oooooh, she tastes like sunlight
 And she's always gonna be there, in the back of your mind

e|--2--------------0-------------2------------0-----------------------------------|
B|--2--------------0-------------2------------0-----------------------------------|
G|--4--------------1-------------4------------1-----------------------------------|
D|--4--------------2-------------4------------2-----------------------------------|
A|--3--------------2-------------3------------2-----------------------------------|
E|--2--------------0-------------2------------0-----------------------------------|


Oooooooh, Is there time to rewind?
 Were you born to live, or born to die?

e|--2--------------0-------------4------------2-----------------------------------|
B|--2--------------0-------------4------------2-----------------------------------|
G|--4--------------1-------------6------------2-----------------------------------|
D|--4--------------2-------------6------------4-----------------------------------|
A|--3--------------2-------------5------------4-----------------------------------|
E|--2--------------0-------------4------------2-----------------------------------|

Forget and forgive, there's a place you can live

e|--2----0-------0----------------------------------------------------------------|
B|--2----2-------0----------------------------------------------------------------|
G|--4----2-------1----------------------------------------------------------------|
D|--4----2-------2----------------------------------------------------------------|
A|--3----0-------2----------------------------------------------------------------|
E|--2----0-------0----------------------------------------------------------------|

[Intro]

e|-----------------------------------0--------------------------------------------|
B|---2----2----2----3----4----2----0---0------------------------------------------|
G|--2----1----0----0----3----2----1-1-1-1-----------------------------------------|
D|-2--2-2--2-2--2-2--2------------------------------------------------------------|
A|---------------------2--2-0--0--------------------------------------------------|
E|-------------------------------0------------------------------------------------|


[Verse 2]

Go and watch the pretty girls in town
 (California daze)
 When you're feeling kind of down
 (Never feels the same)

e|-0------0---0------0-----2-------0-------0---------------------------------------|
B|-2------2---2------3-----3-------2-------0---------------------------------------|
G|-2------1---0------0-----4-------2-------3---------------------------------------|
D|-2------2---2------2-----4-------2-------2---------------------------------------|
A|-0------0---0------0-----2-------0-------2---------------------------------------|
E|-x------x---x------x-----2-------0-------0---------------------------------------|

Lean in to a California Daze
 (It's the darkest gloom)
 It's always been the fastest way

e|-0------0---0------0-----2-------0-------0---------------------------------------|
B|-2------2---2------3-----3-------2-------0---------------------------------------|
G|-2------1---0------0-----4-------2-------3---------------------------------------|
D|-2------2---2------2-----4-------2-------2---------------------------------------|
A|-0------0---0------0-----2-------0-------2---------------------------------------|
E|-x------x---x------x-----2-------0-------0---------------------------------------|

[Verse 2]

 Oooooh, she tastes like sunlight
 And she's always gonna be there, in the back of your mind

e|--2--------------0-------------2------------0-----------------------------------|
B|--2--------------0-------------2------------0-----------------------------------|
G|--4--------------1-------------4------------1-----------------------------------|
D|--4--------------2-------------4------------2-----------------------------------|
A|--3--------------2-------------3------------2-----------------------------------|
E|--2--------------0-------------2------------0-----------------------------------|

Oooooooh, Is there time to rewind?
 Were you born to live, or born to die?

e|--2--------------0-------------4------------2-----------------------------------|
B|--2--------------0-------------4------------2-----------------------------------|
G|--4--------------1-------------6------------2-----------------------------------|
D|--4--------------2-------------6------------4-----------------------------------|
A|--3--------------2-------------5------------4-----------------------------------|
E|--2--------------0-------------4------------2-----------------------------------|

Forget and forgive, there's a place you can live

e|--2----0-------0----------------------------------------------------------------|
B|--2----2-------0----------------------------------------------------------------|
G|--4----2-------1----------------------------------------------------------------|
D|--4----2-------2----------------------------------------------------------------|
A|--3----0-------2----------------------------------------------------------------|
E|--2----0-------0----------------------------------------------------------------|

Oooooh, she tastes like sunlight
 And she's always gonna be there, in the back of your mind

e|--2---0-----------0-------------0--------0---------2--------------------------|
B|--2---2-----------0-------------2--------0---------2--------------------------|
G|--4---2-----------1-------------2--------1---------2--------------------------|
D|--4---2-----------2-------------2--------2---------4--------------------------|
A|--3---0-----------2-------------0--------2---------4--------------------------|
E|--2---0-----------0-------------0--------0---------2--------------------------|


Oooooooh, Is there time to rewind?
 Were you born to live, or born to die?

e|--2---0-----------0-------------0--------0---------2--------------------------|
B|--2---2-----------0-------------2--------0---------2--------------------------|
G|--4---2-----------1-------------2--------1---------2--------------------------|
D|--4---2-----------2-------------2--------2---------4--------------------------|
A|--3---0-----------2-------------0--------2---------4--------------------------|
E|--2---0-----------0-------------0--------0---------2--------------------------|

[Solo]

e|--2---0-----------0-------------0--------0---------2--------------------------|
B|--2---2-----------0-------------2--------0---------2--------------------------|
G|--4---2-----------1-------------2--------1---------2--------------------------|
D|--4---2-----------2-------------2--------2---------4--------------------------|
A|--3---0-----------2-------------0--------2---------4--------------------------|
E|--2---0-----------0-------------0--------0---------2--------------------------|


e|--2---0-----------0-------------0--------0---------2--------------------------|
B|--2---2-----------0-------------2--------0---------2--------------------------|
G|--4---2-----------1-------------2--------1---------2--------------------------|
D|--4---2-----------2-------------2--------2---------4--------------------------|
A|--3---0-----------2-------------0--------2---------4--------------------------|
E|--2---0-----------0-------------0--------0---------2--------------------------|


Forget and forgive, there's a place you can live

e|--2---0-----------0-----------------------------------------------------------|
B|--2---2-----------0-----------------------------------------------------------|
G|--4---2-----------1-----------------------------------------------------------|
D|--4---2-----------2-----------------------------------------------------------|
A|--3---0-----------2-----------------------------------------------------------|
E|--2---0-----------0-----------------------------------------------------------|

[Outro]

e|-----------------------------------------5-x---x-0-----------------------------|
B|-----------------------------------------5-x---x-0-----------------------------|
G|------9-----------9-----------9-9---7--6-7-x-6-x-1-2-2-/4/6--------------------|
D|----11---------11----------11---11--9--7-7-x-7-x-2-----------------------------|
A|-12-----12--11------11--10---------------7-x-7-x-2-----------------------------|
E|-----------------------------------------5-x-5-x-0-----------------------------|



************************************

| x  Dead note
| /  Slide up

************************************

            
            
Suggest correction
Creating personal tab
Creating personal tab
You can edit any tab online and save it as your Personal.

You can edit, replace or remove any tab part or add personal notes – all changes will be seen only by you.

Personal tabs can be accessed anytime from any device, even offline.
Learn more »
Give kudos to tab author, rate the tab!
1 2 3 4 5
comments
print report bad tab
guest
You may want to rate the tab now too:
select rating
Wanna post a correction for this tab? Suggest correction