Oops, an error
Loading. Please wait.

Follow Baby Tab

version 1
version 1

Intro

Whole song

Interactive

8,409 views 48 this week
no commentswrite comment
1 2 3 4 5
accurate
x 6
add to favorites
launch autoscroll
font size
0
reset
how to read this tab
guitar tuner
Tab Pro tools
  • play this tab
  • loop segment
  • change instrument
  • show fretboard
  • metronome
Autoscroll
slow
fast
+/-
esc
set tempo
stop
Contributor
Difficulty
novice
no one tabbed this right so i thought i would try

there may be mistakes

Intro

Guitar 1
E|------------------------------------------------------------------|
B|------------------------------------------------------------------|
G|--5--5--5--5--5/13--13--13-(x3)-10--10--10--10--10--8--8--10--5~--|
D|------------------------------------------------------------------|
A|------------------------------------------------------------------|
E|------------------------------------------------------------------|



E|---------------------|
B|---------------------|
G|--17b18r17-----------|
D|------------16--15~--|
A|---------------------|
E|---------------------|


Guitar 2
E|---------------------------------------------------------------|
B|---------------------------------------------------------------|
G|---------------------------------------------------------------|
D|---------------------------------------------------------------|
A|---------------------------------------------------------------|
E|--4--4--4--4--4/12--12--12-(x3)-9--9--9--9--9--7--7--7--9--4~--|



E|----------------|
B|----------------|
G|--5b6r5-----8~--|
D|---------6------|
A|----------------|
E|----------------|

Verse

2nd guitar plays with feedback into the verse


E|--------------------------------14----------|
B|--12b13r12------16--16--12----------12------|
G|------------13--------------13----------13--|
D|--------------------------------------------|
A|--------------------------------------------|
E|--------------------------------------------|

Chorus

Both guitars
E|--0--4--2--4--|
B|--0--4--2--4--|
G|--1--4--3--4--|
D|--2--6--4--6--|
A|--2--6--4--6--|
E|--0--4--2--4--|

Final Chorus

Guitar 1
E|-------------------------------------------------------------|
B|-------------------------------------------------------------|
G|--4--4--4--4--4--13--13--13--11--11--11--11--11--13--13--13--|
D|-------------------------------------------------------------|
A|-------------------------------------------------------------|
E|-------------------------------------------------------------|



E|----------------------------------------------------------|
B|----------------------------------------------------------|
G|--4--4--4--4--4--13--13--13--11--11--11--11--11--8--8--8--|
D|----------------------------------------------------------|
A|----------------------------------------------------------|
E|----------------------------------------------------------|



E|----------------------------------------------------------------------------|
B|----------------------------------------------------------------------------|
G|-4--4--4--4--4--13--13--13--11--11--11--11--11--15b16--16--16r15--15--15b16-|
D|----------------------------------------------------------------------------|
A|----------------------------------------------------------------------------|
E|----------------------------------------------------------------------------|


Guitar holds E|-------|
             B|-------|
             G|--16~~-|
             D|-------|
             A|-------|
             E|-------|

Chords

Intro

Ab E Ab E Ab E C# B Ab

Verse

Ab C# B E

Chorus

E Abm F# Abm
comments
print report bad tab
I want to post or [tab]
guest
You may want to rate the tab now too:
select rating
Please do not post tabs as comments. Select "correction" instead!