Oops, an error
Loading. Please wait.

Lost On Me tab

by Peace
241 views 6 this week
no commentswrite comment
1 2 3 4 5
1 last vote to show rating
add to favorites
×
Save as Personal and add changes to this tab that will be seen only by you. Learn more ›
×
You can save this tab as Personal to edit and correct it or add notes. All changes will be seen only by you. Learn more »
launch autoscroll
font size
0
reset
how to read this tab
guitar tuner
edit
Autoscroll
slow
fast
+/-
esc
set tempo
stop
About this tab version
There is only one chord version of this song, this one is a full tab version with a solo. Was this info helpful? Yes No
Band : Peace
Song : Lost On Me
Album: Happy People (2015)

Tabbed by: Kovács Márk
E-mail   : nidaleop@gmail.com


[Intro]                         
                           2x
    [E]      [Esus4]    [E7sus4]

   d u d     d  u  d     d  u  d 
e|-x-x-x--|--x--x--x--|--10-10-10-|
B|-9-9-9--|--10-10-10-|--10-10-10-|
G|-9-9-9--|--9--9--9--|--9--9--9--|
D|-9-9-9--|--9--9--9--|--7--7--7--|
A|-7-7-7--|--7--7--7--|--7--7--7--|
E|--------|-----------|-----------|


(you can do a slight bend on that D 9 note)
    [part 1]       [part 2]
e|-------------|------------|
B|-----12------|------9-10--|
G|-s14----14---|-9-11-------|    4x
D|-----------9-|------------| 
A|-------------|------------|
E|-------------|------------|
     

               e|--------|
               B|10-9----|
               G|-9-9----|        ( every second time play this
               D|--------|         instead of part 2 )
               A|--------|
               E|--------|

[Verse]
GUITAR1 (whole time):

PM - - - - - - - - - - - - -
e|----------------------------|
B|----------------------------|
G|----------------------------|
D|-9-9-9-9-9-9-9-9-9-9-9-9-9--|
A|----------------------------|
E|----------------------------|

GUITAR2 (delay+wah)

e|--7---x---|
B|--7---9---|
G|--7---9---|
D|--9---9---|
A|--9---7---|
E|--7-------|

[Pre-Chorus]
(chemically so heavenly...)

e|-------7--9---10----|
B|-3--5--7----7----7--|
G|-4--6--7------------|
D|-5--7---------------|
A|--------------------|
E|--------------------|

[Palm-muted part]
(half of the chorus and outro) (1:27-1:55 in the song)

  double pick the notes
PM - - - - - - - - - - - - - - - - - - - - - - - - - - - - - - - 
e|---------------------|-------------------------|----------------------|
B|---------------------|-------------------------|----------------------|
G|-----------------7-7-|---------7-7-7-7---------|-7-7-9-9-7-7-6-6------|  
D|-9-9-----7-7-9-9-----|-7-7-9-9---------7-7-9-9-|-----------------9-9--|
A|-----9-9-------------|-------------------------|----------------------|
E|---------------------|-------------------------|----------------------|


[Solo]
(I separated the solo into 4 parts so it's easier to read and learn)
                   [ PART I ]                               [PART II]                          
e|---------------------------14b-14b-14b-14br-|-----------------------------------------|
B|-0--10--9--------10-12-0--------------------|-12----10-12-----------------------------|
G|-----------11-11----------------------------|----11-------15b-15-15b-15-15b-15-15br---|
D|--------------------------------------------|-----------------------------------------|
A|--------------------------------------------|-----------------------------------------|
E|--------------------------------------------|-----------------------------------------|

      [PART III]                   [PART IV]           
e|---------------------------|------------------------------|
B|----10-12-0----------------|--12----10-0--15b-------------|
G|-11----------11b-10b-9b-7b-|-----11-----------11----------|
D|---------------------------|---------------------14-------|
A|---------------------------|------------------------12b~--|
E|---------------------------|------------------------------|

after the solo
   
e|-5---5---5---5---|-4---4---4---4---|-3---3---3---3----|
B|---7---7---7---7-|---5---5---5---5-|---5---5---5---5--|
G|-----------------|-----------------|------------------| (2x)
D|-----------------|-----------------|------------------|
A|-----------------|-----------------|------------------|
E|-----------------|-----------------|------------------|

[Outro]

(GUITAR1): is playing the [PAL MUTED PART] without muting it
(GUITAR2): is playing the intro chords


************************************

x = mute note
b = bend 
s = slide
PM = palm mute
d = picking downwards
u = picking upwards
~ = tremolo

************************************

            
            
Suggest correction
Creating personal tab
Creating personal tab
You can edit any tab online and save it as your Personal.

You can edit, replace or remove any tab part or add personal notes – all changes will be seen only by you.

Personal tabs can be accessed anytime from any device, even offline.
Learn more »
Give kudos to tab author, rate the tab!
1 2 3 4 5
comments
print report bad tab
guest
You may want to rate the tab now too:
select rating
Wanna post a correction for this tab? Suggest correction