Oops, an error
Loading. Please wait.

Perfect Skin bass

by Peace
956 views 1 this week
no commentswrite comment
1 2 3 4 5
x 3
add to favorites
×
Save as Personal and add changes to this tab that will be seen only by you. Learn more ›
×
You can save this tab as Personal to edit and correct it or add notes. All changes will be seen only by you. Learn more »
launch autoscroll
font size
0
reset
guitar tuner
edit
Autoscroll
slow
fast
+/-
esc
set tempo
stop
Author
Difficulty
-------------------------------------------------------------------------------
                             Peace - Perfect Skin
-------------------------------------------------------------------------------
Tabbed by: Rory H
E-mail: rdeh10@googlemail.com

Tuning: EADG

Now, I love the bassline for this song, but I don't play bass. Excuse me if I made any serious errors as this 
was tabbed using a guitar, a pick and a pitch shifter. Please, do correct me or improve upon this tab by 
leaving comments or emailing me :)  

I have also submitted both guitar parts on a tab here:
http://tabs.ultimate-guitar.com/p/peace/perfect_skin_ver2_tab.htm

Verse:
G|--------------------------------------------------------------------------------------|      
D|------------------------------------5h7-5h7-7-7------7--7--------7-7------7--7--------|      
A|-8-8------8--8--------8-8------8--8-------------8h10--------8h10-----8h10------8h10---|      
E|-----8h10------8-8h10-----8h10--------------------------------------------------------|      
                                                                                                   
G|-------------------------------------------------------------------------------|             
D|-8-8------8--8--------8-8------8--8--------------------------------------------|             
A|-----8h10-------8h10------8h10------8h10-8-8------8--8--------8-8------8--8----|             
E|---------------------------------------------8h10------8-8h10-----8h10------8--|                  

Pre-Chorus:
G|-------10--------------------10--------------------9-----------------------9-----------------|
D|-12-12----12--12-------12-12----12--12-------10-10---10--10----------10-10---10--10----------|
A|-----------------12-12-----------------12-12----------------10-10h12----------------10-10h12-|
E|---------------------------------------------------------------------------------------------|

G|-----7-----------------7-------------------------------------------------|
D|-8-8---8--8--------8-8---8--8-8------------------------------------------|
A|------------8-8h10--------------8-8-8-8-8-8-8-8-12-12-12-12-12-12-12-12--|
E|-------------------------------------------------------------------------|

Chorus:
G|-------7-7-5---------------9-9-----------------------------------------------|
D|-------------8-7--------7----------------------------------------------------|
A|-----------------8-8-10---------0-0-0-0-12-12-10----------------0-------0----|
E|-6-6-6-------------------------------------------13-12-10-10-10---8-8-8------|

G|-------7-7-5---------------9-9-----------------------------------------------------------------|
D|-------------8-7--------7----------------------------------------------------------------------|
A|-----------------8-8-10---------0-0-0-0-12-12-10-------0--0-0-0--0-----------------------------|
E|-6-6-6-------------------------------------------13-12-------------6-6-6-6-6-6-6-6-8-8-8-8-8/--|

Verse x2
Pre-Chorus 
Chorus

Bridge:
G|----------------------9-9-------------------------------------------------9-9-|
D|----------------3-5-7---------------------3-5-7-5-5----------------3-5-7------|
A|---------8-------------------------8------------------------8-----------------|
E|-10-8h10---6--1------------10-8h10---6--1-----------10-8h10---6--1------------|

G|---------------------------------|
D|---------------------------------|
A|---------8---0-0-0-0-12-12-12-0--|
E|-10-8h10---6---------------------|

Chorus

then:
G|-------7-7-5-----------9-9-7-------------9-9--7--7-7-5--------------------------------|
D|-------------8-7-------------10------5-7---------------8-7----------------------------|
A|---------------------------------8-8--------------------------------------------------|
E|-6-6-6-----------8-8-8--------------------------------------6-6-6-6-6-6-6-6-8-8-8-8-8-|



| /  slide up
| \  slide down
| h  hammer-on
| p  pull-off
| ~  vibrato
| +  harmonic
| x  Mute note
===============================================================================
Suggest correction
Creating personal tab
Creating personal tab
You can edit any tab online and save it as your Personal.

You can edit, replace or remove any tab part or add personal notes – all changes will be seen only by you.

Personal tabs can be accessed anytime from any device, even offline.
Learn more »
Give kudos to tab author, rate the tab!
1 2 3 4 5
comments
print report bad tab
guest
You may want to rate the tab now too:
select rating
Wanna post a correction for this tab? Suggest correction