Oops, an error
Loading. Please wait.

Perfect Skin tab

version 2
version 2

Whole song

by Peace
1,220 views 3 this week
no commentswrite comment
1 2 3 4 5
1 last vote to show rating
add to favorites
×
Save as Personal and add changes to this tab that will be seen only by you. Learn more ›
×
You can save this tab as Personal to edit and correct it or add notes. All changes will be seen only by you. Learn more »
launch autoscroll
font size
0
reset
how to read this tab
guitar tuner
edit
Autoscroll
slow
fast
+/-
esc
set tempo
stop
Author
Difficulty
intermediate
Perfect Skin - Peace
Tabbed by: Rory H
E-mail: rdeh10@googlemail.com
Tuning: EADGBe
http://tabs.ultimate-guitar.com/p/peace/perfect_skin_btab.htm

[Verse]
[Guitar 1]
e|-----------------------|
B|-18----17----15----13--|
G|---19----17----14------|(x8)
D|-----------------------|
A|-----------------------|
E|-----------------------|

[Guitar 2]
e|-----------------------------------------------------------------------------------------------|
B|-----------------------------------------------------------------------------------------------|
G|-5-5--5-5--5-5--5-5--9--9---9--9---9--9---9--9---10-10--10-10--10-10--10-10--5-5--5-5--5-5--5-5|
D|-7-7--7-7--7-7--7-7--11-11--11-11--11-11--11-11--12-12--12-12--12-12--12-12--7-7--7-7--7-7--7-7| x2
A|-----------------------------------------------------------------------------------------------|
E|-----------------------------------------------------------------------------------------------|

[Pre chorus]
[Guitar 1]
e|-----------------------|
B|-18----17----15----13--|
G|---19----17----14------| x4 (Last time, don't play 13)
D|-----------------------|
A|-----------------------|
E|-----------------------|

[Guitar 2]
e|-----------------------------------------------------------------------------------------------------------|
B|10---10---10---10-10-8-8-----8-8-----8-8-----8-8--6-6-----6-6-----6-6-----6-6------------------------------|
G|--10---10---10-----------9-9-----9-9-----9-9----------7-7-----7-7-----7-7-----2-2-2-2-2-2-2-2/6-6-6-6-6-6-6|
D|-----------------------------------------------------------------------------------------------------------|
A|-----------------------------------------------------------------------------------------------------------|
E|-----------------------------------------------------------------------------------------------------------|

[Chorus]
[Guitar 1](W/ delay)
e|------------------------------------------------------|
B|-3----1----5----6--(5)--3----1----5----5----6----8----|
G|-3----2----6----7--(5)--3----2----6----6----7----9----|
D|-3----3----7----7--(5)--3----3----7----7----8----10---|
A|-1----3----7----5--(3)--1----3----7----7----8----10---|
E|------1----5-----------------1----5----5----6----8----|

[Guitar 2]
e|-------------------------------------------------------------|
B|-------------------------------------------------------17----|
G|-------------------------------------------6b7r6---17--17----|
D|-------------------------------------7b8r7---------15--14----|
A|-------------------------------------------------------------|
E|-------------------------------------------------------------|

[Verse 2]
Guitar 2 plays same as verse 1, after one time, guitar 2 plays same as verse 1.

[Prechorus]
[Chorus]

[Bridge]
[Guitar 1]
e|-----------------------------------------------------------------------------------------------------------|
B|-----------------------------------------------------------------15-18-15--------------------------16b18-15|
G|-----------------------9b10r9-14-14b15r14-14-14b15r14-14-14b15r14--------14-14b15r14-14-14b15r14-14--------|
D|7-7b8r7-7-7b8r7-7-7b8r7------------------------------------------------------------------------------------|
A|-----------------------------------------------------------------------------------------------------------|
E|-----------------------------------------------------------------------------------------------------------|

[Final Chorus](Not totally sure which guitar is which here)
[Guitar 1]
e|-----------------------------------------------------------------|
B|-15---13--15---13--18---20---18---17---15---13--17---18-17---20--|
G|---14-------14-------19---17---19---17---14-------18------18-----|
D|-----------------------------------------------------------------|
A|-----------------------------------------------------------------|
E|-----------------------------------------------------------------|

[Guitar 2](w/ Delay)
e|------------------------------------------|
B|-3----1----5----6--(5)--3----1----5----5--|
G|-3----2----6----7--(5)--3----2----6----6--|
D|-3----3----7----7--(5)--3----3----7----7--|
A|-1----3----7----5--(3)--1----3----7----7--|
E|------1----5-----------------1----5----5--|

[Final Chorus pt2]
[Guitar 1]
e|-17----15----12----10----17----15------|
B|----18----15----13----10----18----17---|
G|---------------------------------------|
D|---------------------------------------|
A|---------------------------------------|
E|---------------------------------------|

[Guitar 2]
e|-----------------------------|
B|-3----5----1----6----3----5--|
G|-3----5----2----7----3----5--|
D|-3----5----3----7----3----5--|
A|-1----3----3----5----1----3--|
E|-----------1-----------------|

(Guitar 2 plays verse whilst guitar 1 wobbles around until the end)

************************************

| /    Slide up
| (n)  Ghost note
| r    Release
| b    Bend
  

************************************

            
            
Suggest correction
Creating personal tab
Creating personal tab
You can edit any tab online and save it as your Personal.

You can edit, replace or remove any tab part or add personal notes – all changes will be seen only by you.

Personal tabs can be accessed anytime from any device, even offline.
Learn more »
Give kudos to tab author, rate the tab!
1 2 3 4 5
comments
print report bad tab
guest
You may want to rate the tab now too:
select rating
Wanna post a correction for this tab? Suggest correction