Oops, an error
Loading. Please wait.

Under The Moon bass

by Peace
181 views 1 this week
no commentswrite comment
1 2 3 4 5
3 more votes to show rating
add to favorites
×
Save as Personal and add changes to this tab that will be seen only by you. Learn more ›
×
You can save this tab as Personal to edit and correct it or add notes. All changes will be seen only by you. Learn more »
launch autoscroll
font size
0
reset
guitar tuner
edit
Autoscroll
slow
fast
+/-
esc
set tempo
stop
Author
Difficulty
Tabbed by: 6METAL6BASSIST6
E-mail: petergriffinav@gmail.com

Tuning: EADG

G|------------------------------------------------------------------------------------------------|
D|--------------------------------------------------------4-------3---2---0-----------------------|
A|0---------------0---2---4-----------------------------------------------------------0-----------|
E|------------------------------------4-----------2-------------------------------------------0---|

G|------------------------------------------------------------------------------------------------|
D|------------7---6---4---2-----------------------------------------------------------------------|
A|0-----------------------------------2-----------0-----------------------0-----------------------|
E|----------------------------------------------------------------0-----------------------0-------|

0:19

G|------------------------------------------------------------------------------------------------|
D|------------------------------------------------------------4---3---2---0-----------------------|
A|0---------------0---2---4-----------------------------------------------------------0-----------|
E|------------------------------------4-----------2-----------------------------------------------|

G|------------------------------------------------------------------------------------------------|
D|------------7---6---4---2-----------------------------------7---------/-9---------/-11------\---|
A|0-----------------------------------2-----------0-------------------------------0---------------|
E|------------------------------------------------------------------------------------------------|

0:36

G|------------------------------------------------------------------------------------------------|
D|--------------------------------------------------------4-------3---2---0-----------------------|
A|0---------------0---2---4-----------------------------------------------------------0-----------|
E|------------------------------------4-----------2-----------------------------------------------|

G|------------------------------------------------------------------------------------------------|
D|------------7---6---4---2-----------------------------------7---------/-9---------/-11------\---|
A|0-----------------------------------2-----------0-------------------0-----------0---------------|
E|------------------------------------------------------------------------------------------------|

0:53

G|------------------------------------------------------------------------------------------------|
D|--------------------------------------------------------4-------3---2---0-----------------------|
A|0---------------0---2---4-----------------------------------------------------------0-----------|
E|------------------------------------4-----------2-------------------------------------------0---|

G|------------------------------------------------------------------------------------------------|
D|------------7---6---4---2-----------------------------------------------------------------------|
A|0-----------------------------------2-----------0-----------------------0-----------------------|
E|----------------------------------------------------------------0---0-------------------0---0---|

1:11

G|------------------------------------------------------------------------------------------------|
D|------------------------------------------------------------4---3---2---0-----------------------|
A|0---------------0---2---4-----------------------------------------------------------0-----------|
E|------------------------------------4-----------2-------------------------------------------0---|

G|------------------------------------------------------------------------------------------------|
D|------------7---6---4---2-----------------------------------7---------/-9---------/-11------\---|
A|0-----------------------------------2-----------0-------------------0-----------0---------------|
E|------------------------------------------------------------------------------------------------|

1:29

G|------------------------------------------------------------------------------------------------|
D|--------------------------------------------------------4-------3---2---0-----------------------|
A|0---------------0---2---4-----------------------------------------------------------0-----------|
E|------------------------------------4-----------2-------------------------------------------0---|

G|------------------------------------------------------------------------------------------------|
D|------------7---6---4---2-----------------------------------7---------/-9---------/-11------\---|
A|0-----------------------------------2-----------0-------------------0-----------0---------------|
E|------------------------------------------------------------------------------------------------|

1:45

G|------------------------------------------------------------------------------------------------|
D|----------------------------------------------------------------3---2---0-----------------------|
A|0---------------0---2---4-----------------------------------------------------------0-----------|
E|------------------------------------4-----------2-----------------------------------------------|

G|------------------------------------------------------------------------------------------------|
D|------------7---6---4---2-----------------------------------7---------/-9---------/-11------\---|
A|0-----------------------------------2-----------0-------------------0-----------0---------------|
E|------------------------------------------------------------------------------------------------|

2:04

G|------------------------------------------------------------------------------------------------|
D|------------------------------------------------------------4---3---2---0-----------------------|
A|0---------------0---2---4-----------------------------------------------------------0-----------|
E|------------------------------------4-----------2-------------------------------------------0---|

G|------------------------------------------------------------------------------------------------|
D|------------7---6---4---2-----------------------------------7---------/-9---------/-11----------|
A|0-----------------------------------2-----------0-------------------0-----------0-----------0---|
E|------------------------------------------------------------------------------------------------|

2:20

G|------------------------------------------------------------------------------------------------|
D|------------------------------------------------------------4---3---2---0-----------------------|
A|0---------------0---2---4-----------------------------------------------------------0-----------|
E|------------------------------------4-----------2-----------------------------------------------|

G|------------------------------------------------------------------------------------------------|
D|------------7---6---4---2-----------------------------------7---------/-9---------/-11----------|
A|0-----------------------------------2-----------0-------------------0-----------0-----------0---|
E|------------------------------------------------------------------------------------------------|

2:38

G|------------------------------------------------------------11--10--9---8-----------------------|
D|----------------------------------------------------------------------------9---------------9---|
A|0---------------0---2---4-------------------------------------------------------9---6---9-------|
E|------------------------------------4-----------2-------/---------------------------------------|

G|------------------------------------------------------------------------------------------------|
D|----------------0---1---2-----------------------------------7---------/-9---------/-11------\---|
A|0-----------------------------------2-----------0-------------------0-----------0---------------|
E|------------------------------------------------------------------------------------------------|

2:55

G|------------------------------------------------------------------------------------------------|
D|--------------------------------------------------------4-------3---2---0-----------------------|
A|0---------------0---2---4-----------------------------------------------------------0-----------|
E|------------------------------------4-----------2-----------------------------------------------|

G|------------------------------------------------------------------------------------------------|
D|------------7---6---4---2-----------------------------------7---------/-9---------/-11----------|
A|0-----------------------------------2-----------0-------------------0-----------0---------------|
E|------------------------------------------------------------------------------------------------|

3:12

G|------------------------------------------------------------------------------------------------|
D|------------------------------------------------------------4---3---2---0-----------------------|
A|0---------------0---2---4-----------------------------------------------------------0-----------|
E|------------------------------------4-----------2-------------------------------------------0---|

G|------------------------------------------------------------------------------------------------|
D|------------7---6---4---2-----------------------------------7---------/-9---------/-11----------|
A|0-----------------------------------2-----------0-------------------------------0---------------|
E|------------------------------------------------------------------------------------------------|

G|------------------------|
D|------------------------|
A|0-----------------------|
E|------------------------|
Suggest correction
Creating personal tab
Creating personal tab
You can edit any tab online and save it as your Personal.

You can edit, replace or remove any tab part or add personal notes – all changes will be seen only by you.

Personal tabs can be accessed anytime from any device, even offline.
Learn more »
Give kudos to tab author, rate the tab!
1 2 3 4 5
comments
print report bad tab
guest
You may want to rate the tab now too:
select rating
Wanna post a correction for this tab? Suggest correction