Oops, an error
Loading. Please wait.

Wraith Tab

15,522 views 1 this week
3 commentsread comments
1 2 3 4 5
x 10
add to favorites
launch autoscroll
font size
0
reset
how to read this tab
guitar tuner
Autoscroll
slow
fast
+/-
esc
set tempo
stop
Help us to improve Ultimate-Guitar.com Take our survey!
×
Author
Difficulty
intermediate
Tabbed by LiamConnolly

intro/verse
e|----------------------------------------------------------------------------|
B|----------------------------------------------------------------------------|
G|--14-12------------------14-14-12-------------------------------------------|
D|--------14-12---------------------14-12-------------------------------------|   
A|--------------15-12-12------------------15--12------------------------------|  
E|----------------------------------------------------------------------------|

pre-chorus
e|----------------------------------------------------------------------------|
B|----------------------------------------------------------------------------|
G|--14--14--14--14--12-12-12-12-16-16-16------12-12-13-14------12-12-13-14----|
D|----------------------------------------------------------------------------|
A|----------------------------------------------------------------------------|
E|----------------------------------------------------------------------------|

Chorus
e|-------------------------------------------15---12---15b---12---------------|
B|--15---13---15---13-------13-----13-----------------------------------------|
G|----------------------14-----14---------------------------------------------|
D|----------------------------------------------------------------------------|
A|----------------------------------------------------------------------------|
E|----------------------------------------------------------------------------|
Suggest correction
comments
print report bad tab
3 comments total.
+2 reply
jamessssssmith 10 Jun 03, 2013 01:56 PM

great tab, there is another lick in the intro/verse though which starts on the 13th on the B string though, something like this

e|------------------------------------------------------
B|--13-12--------------------13-13-12-------------------
G|---------14-12-14-------------------14-12-14----------
D|------------------14-------------------------14-------
A|------------------------------------------------------
E|------------------------------------------------------

0 reply
jamessssssmith 10 Jun 03, 2013 04:13 PM

great tab, there does seem to be another lick in the intro/verse on the B string though, something like this:

e|--------------------------------------------------
B|-13-12------------------13-13-12------------------
G|-------14-12-14------------------14-12-14---------
D|----------------14------------------------14------
A|--------------------------------------------------
E|--------------------------------------------------

0 reply
LiamConnolly 93 Jun 08, 2013 09:44 AM

Yeah I couldn't seem to work that bit out but that sounds right thanks :)

guest
You may want to rate the tab now too:
select rating
Wanna post a correction for this tab? Suggest correction