Oops, an error
Loading. Please wait.

Wraith Bass Tab

version 2
version 2

Whole song

1,350 views 6 this week
no commentswrite comment
1 2 3 4 5
x 6
add to favorites
launch autoscroll
font size
0
reset
guitar tuner
Autoscroll
slow
fast
+/-
esc
set tempo
stop
Help us to improve Ultimate-Guitar.com Take our survey!
×
Author
Wraith Bass Tab®

G|--------------------|
D|--------------------|
A|--12--0-0--12--0-0--|
E|--------------------|

G|----------------------------------------------------|
D|----------------------------------------------------|
A|--12-10-----------0-0---0-12-12-10-------------0-0--|
E|-----------10-12-------------------------10-12------|
                                                                             (x4)
G|------------------------------------------------------|
D|------------------------------------------------------|
A|--0-12-10-----------0-0---0-12-12-10--------------0-0-|
E|--------------10-12-------------------------10-12-----|

G|----------------------------------------------------|
D|----------------------------------------------------|
A|--12-10-----------0-0---0-12-12-10-------------0-0--|
E|-----------10-12-------------------------10-12------|

G|---------|
D|---------|
A|---------|
E|--5(x9)--|

G|-----------------------------------------------------|
D|-----------------------------------------------------|
A|-------------1-3(x3)-3-5-----------------------------|
E|--1(x3)-1------------------3(x3)-3-1-5(x3)\----------|

G|------------------------------------------------------------|
D|------------------------------------------------------------|
A|-------------1-3(x3)-3-5------------------------\12---------|
E|--1(x3)-1------------------3(x3)-3-1-5(x3)------------------|

G|----------------------------------------------------|
D|----------------------------------------------------|
A|--12-10-----------0-0---0-12-12-10-------------0-0--|
E|-----------10-12-------------------------10-12------|
                                                                             (x4)
G|-----------------------------------------------------|
D|-----------------------------------------------------|
A|--0-12-10-----------0-0---0-12-12-10-------------0-0-|
E|--------------10-12-------------------------10-12----|

G|--------------------------|
D|--------------------------|
A|--------------------------|
E|--1(x4)-3(x4)-5(x8)-------|

x2
G|-----------------------------------------------------|
D|-----------------------------------------------------|
A|-------------1-3(x3)-3-5-----------------------------|
E|--1(x3)-1------------------3(x3)-3-1-5(x3)\----------|

G|-----------------------------------------------|
D|-----------------------------------------------|
A|--8(x3)-8-10----------------10(x5)-------------|
E|-----------------8(x3)-8-10-----------5--------|
Suggest correction
comments
print report bad tab
guest
You may want to rate the tab now too:
select rating
Wanna post a correction for this tab? Suggest correction