Oops, an error
Loading. Please wait.

Alrighty Aphrodite chords

418 views 96 this week
1 commentread comment
1 2 3 4 5
x 3
add to favorites
×
Save as Personal and add changes to this tab that will be seen only by you. Learn more ›
×
You can save this tab as Personal to edit and correct it or add notes. All changes will be seen only by you. Learn more »
launch autoscroll
font size
0
reset
transpose
0
reset
simplify chords
display chords
guitar tuner
edit
Autoscroll
slow
fast
+/-
esc
set tempo
stop
Strumming
There is no strumming pattern for this song yet. and get +5 IQ
(link for the vid: https://www.youtube.com/watch?v=2fQot8XdGtc)

B7  x-2-1-2-0-2
C/G 3-3-2-0-1-x
D1   5-5-4-0-3-0

[Intro]
                                                                                         B7
e|------------------------|--------------------------|--------------------------|-2-2-2-2-2-2-2-2----------|
B|------------------------|----------4---------------|--------------------------|-0-0-0-0-0-0-0-0----------|
G|------------------------|---2-4-5----5-5\4---4h5p4-|----------0-0---0-0-2-2p0-|-2-2-2-2-2-2-2-2----------|
D|-----------------1-1-1-1/2-----------------5-------|--5--4\2--2-0h2-2-0-0-0---|-1-1-1-1-1-1-1-1--1-1-1-1/2
A|------------------------|--------------------------|----------3-3---3-x-x-x---|-2-2-2-2-2-2-2-2--2-2-2-2/3
E|------------------------|--------------------------|----------3-3---3-3-3-3---|-x-x-x-x-x-x-x-x----------|

e|-------------------------|--------------------------|
B|-------4-7-5-------5-----|--------------------------|
G|-2-4-5----------5----4/7-|-0-0---0-0-2-2p0--2-2-2-2-|
D|-------------------------|-2-0h2-2-0-0-0----1-1-1-1-|
A|-------------------------|-3-3---3-x-x-x----2-2-2-2-|
E|-------------------------|-3-3---3-3-3-3----x-x-x-x-|

[Verse 1]
C       B7               Em
Take a seat back in your clamshell
        C         G              B7
If the oceans not enough, nor am I
C      B7           Em
Rollin in, I feel a dark swell
C                G          B7
Crawling up the skin of my spine

[Chorus]
C/G       D1               Em
  If I'd known you sold on maybe
C/G             D1             Em
  I'd a let you waste another guy
C/G     D1            Em
  Well Alrighty Aphrodite
C/G            D1            B7
  Go whip that red for other eyes

[Verse 2]
C        B7              Em
Run your morning bath in sea foam
C               G            B7
Soak your milky skin in the tide
C      B7                     Em
Little pearl you think you're in gold
    C              G            B7
But I can see the dirt in your lines
  
[Chorus]  x2
C/G       D1               Em
  If I'd known you sold on maybe
C/G             D1             Em
  I'd a let you waste another guy
C/G     D1            Em
  Well Alrighty Aphrodite
C/G            D1            B7
  Go whip that red for other eyes
Suggest correction
Creating personal tab
Creating personal tab
You can edit any tab online and save it as your Personal.

You can edit, replace or remove any tab part or add personal notes – all changes will be seen only by you.

Personal tabs can be accessed anytime from any device, even offline.
Learn more »
Give kudos to tab author, rate the tab!
1 2 3 4 5
comments
print report bad tab
1 comment total.
0 reply
harlowba 10 3 hours ago

this dope ty

guest
You may want to rate the tab now too:
select rating
Wanna post a correction for this tab? Suggest correction