Oops, an error
Loading. Please wait.

Sweet Fa tab

1,261 views 234 this week
6 commentsread comments
1 2 3 4 5
2 more votes to show rating
add to favorites
×
Save as Personal and add changes to this tab that will be seen only by you. Learn more ›
×
You can save this tab as Personal to edit and correct it or add notes. All changes will be seen only by you. Learn more »
launch autoscroll
font size
0
reset
how to read this tab
guitar tuner
edit
Autoscroll
slow
fast
+/-
esc
set tempo
stop
About this tab version
Sweet FA by Peach Pit, compiled by ear. The chords are a bit off, correct them if you find better alternatives. Was this info helpful? Yes No
[Stave 1: Intro]
e|----------------------------------|
B|------------7p5-------------------|
G|-------4/6-------4r4r4h6p4-----4--|
D|--4/6-----------------------6-----|
A|----------------------------------|
E|----------------------------------|


[Stave 2]
e|--------------------------|
B|------------7p5-----------|
G|-------4/6-------4r4r4h6--|
D|--4/6---------------------|
A|--------------------------|
E|--------------------------|


[Stave 3]
e|----------------------------------------------------------------------|
B|------------7p5-----5h7p5--7b9--9p7h9--12--9--7--9h12p9--7-------5/9--|
G|-------4/6-------6------------------------------------------4/6-------|
D|--4/6-----------------------------------------------------------------|
A|----------------------------------------------------------------------|
E|----------------------------------------------------------------------|

[Repeat Staves 1 and 2]

[Stave 4]
e|----------------------------------------------------------------|
B|------------7p5-----5h7p5--7b9--7/9--12b14--12--9\7\5-----------|
G|-------4/6-------6-------------------------------------6--4-----|
D|--4/6--------------------------------------------------------6--|
A|----------------------------------------------------------------|
E|----------------------------------------------------------------|

[Stave 5: Verse 1]

e|----------------------------------------------------------|
B|----------------------------------------------------------|
G|----------------------------------------------------------|
D|------------4r2-----------------------------4p2-----------|
A|-------2/4-------2r2r2h4p2-----2-------2/4-------2r2r2h4--|
E|--2/4-----------------------4-----2/4---------------------|

[Stave 6]

e|----------------------------------------------------------------|
B|----------------------------------------------------------------|
G|----------------------------------------------------------------|
D|------------4p2-------2h4p2-----2--4b5--4--2-----2-----------2--|
A|-------2/4-------2r4---------4----------------4-----4--2--4-----|
E|--2/4-----------------------------------------------------------|

[Stave 7]

e|-----------------------------------------------------------------|
B|-----------------------------------------------------------------|
G|-----------------------------------------------------------------|
D|------------4r2-----------------------------4p2-----2--4--4b5b4--|
A|-------2/4-------2r2r2h4p2-----2-------2/4-------4---------------|
E|--2/4-----------------------4-----2/4----------------------------|

[Stave 8]

e|--------------------------------------------------------------|
B|--------------------------------------------------------------|
G|-------------------------------4--4/6--4-----4--4/6--4--------|
D|------------4p2-----2--4--4/6-------------6-------------6--4--|
A|-------2/4-------4--------------------------------------------|
E|--2/4---------------------------------------------------------|

[Stave 9: Chorus 1]

e|-------7--------7----------------------------------------|
B|--7/9-----9--7-----7--5--7--5--7/9--7--5--5--5--4--4--2--|
G|------------------------------------------6--6--5--5--3--|
D|---------------------------------------------------------|
A|---------------------------------------------------------|
E|---------------------------------------------------------|

[Stave 10]

e|-------7--------7---------------------------------------------12--12--9--------12--12---------12--|
B|--7/9-----9--7-----7--5--7--5--7/9--7--5--5--5--4--4--7--7/9-------------8/10--10--10--12p10--10--|
G|------------------------------------------6--6--5--5--8------------------------11--11---------11--|
D|--------------------------------------------------------------------------------------------------|
A|--------------------------------------------------------------------------------------------------|
E|--------------------------------------------------------------------------------------------------|

[Stave 11]

e|------------------|
B|------------------|
G|------------------|
D|------------6--4--|
A|--0--0h2h4--------|
E|------------------|

[Stave 12: Verse 2]

e|------------------------------------------------------------|
B|------------------------------------------------------------|
G|------------------------------------------------------------|
D|------------4r2-----------------------------4r2-----2-------|
A|-------2/4-------2r2r2h4p2-----2-------2/4-------2-----2h4--|
E|--2/4-----------------------4-----2/4-----------------------|

[Stave 13]

e|-------------------------------------------------------------------------|
B|-------------------------------------------------------------------------|
G|-------------------------------------------------------------------------|
D|------------4p2-------2--4b5b4--2-------2----------2-----2--2h4p2--------|
A|-------2/4-------2h4---------------2h4-----4--2h4-----4------------4--2--|
E|--2/4--------------------------------------------------------------------|

[Stave 14]

e|------------------------------------------------------------|
B|------------------------------------------------------------|
G|------------------------------------------------------------|
D|------------4p2-----------------------------4p2-----2-------|
A|-------2/4-------2r2r2h4p2-----2-------2/4-------2-----2/4--|
E|--2/4-----------------------4-----2/4-----------------------|

[Stave 15]

e|--------------------------------------------x--x--x--x--x--x--|
B|--------------------------------------------x--x--x--x--x--x--|
G|--------------------------------------------x--x--x--x--x--x--|
D|------------4p2-----2--4--4b5b4--2-------2--x--x--x--x--x--x--|
A|-------2/4-------4------------------2h4-----x--x--x--x--x--x--|
E|--2/4---------------------------------------x--x--x--x--x--x--|

[Stave 16: Solo]

e|-------------------------------------------------------------------------------------------|
B|-------------------------------------------------------------------------------------------|
G|--9h11p9-------------------------------------9h11p9----------------------------------------|
D|----------9h11p9-------------------------------------9h11p9-----------------------------9--|
A|------------------9h11p9--7h9p7--7---------------------------9h11p9--7----------7h9/11-----|
E|------------------------------------7--9/12-----------------------------9--7h9-------------|

[Stave 17]

e|-----------------------------------------------------------------------------------------------------------|
B|------------------------------------------------------------12--------------------------12-----------------|
G|-9h11p9-------------------------------------------9--11b13------11b13b11--9------11b13------11b13b11--9----|
D|---------9h11p9-----------------------------9h11-----------------------------11--------------------------11|
A|-----------------9h11p9--7----------7h9/11-----------------------------------------------------------------|
E|----------------------------9--7h9-------------------------------------------------------------------------|

[Stave 18]

e|--------------------------------------------------------------------------------------|
B|--------------------------------------------------------------------------------------|
G|--9h11p9--------------------------------9h11p9----------------------------------------|
D|----------9h11p9--------------------------------9h11p9-----------------------------9--|
A|------------------9h11p9--7----------7------------------9h11p9--7----------7h9/11-----|
E|-----------------------------9--7h9--------------------------------9--7h9-------------|

[Stave 19]

e|-----------------------------------------------------------------------------------------------------------|
B|-------------------------------------------------------------12-----------------------9--12b14--12--9------|
G|--9h11p9-------------------------------------------9--11b13------11b13b11--9------13-------------------13--|
D|----------9h11p9-----------------------------9h11-----------------------------11---------------------------|
A|------------------9h11p9--7----------7h9/11----------------------------------------------------------------|
E|-----------------------------9--7h9------------------------------------------------------------------------|

[Stave 20]

e|-------------------------------------------------------------------------------|
B|-------------------------------------------------------------------------------|
G|--------------------11p9---------------------------------------11p9------------|
D|-----------9h10h11--------9r9r9h11p9------9-----------9h10h11--------9r9r9h11--|
A|--9h10h11-----------------------------11-----9h10h11---------------------------|
E|-------------------------------------------------------------------------------|

[Stave 21]

e|-----------------------------------------------------------------------------------------------|
B|---------------------------------------------------------9--12b14b12--12--9--------------------|
G|--------------------11p9------9--11b13b11--9------9--11----------------------11--9-------------|
D|-----------9h10h11--------11------------------11------------------------------------11--9------|
A|--9h10h11----------------------------------------------------------------------------------11--|
E|-----------------------------------------------------------------------------------------------|

[Stave 22: Chorus2/Outro. Play this three times, then finish with the chord below and let it linger~]

e|-------7--------7----------------------------------------|
B|--5/9-----9--7-----7--5--7--5--7/9--7--5--5--5--4--4--2--|
G|------------------------------------------6--6--5--5--3--|
D|---------------------------------------------------------|
A|---------------------------------------------------------|
E|---------------------------------------------------------|

e|-----|
B|--0--|
G|--8--|
D|--9--|
A|-----|
E|-----|

************************************

| p  Pull-off
| h  Hammer-on
| r  Release
| /  Slide up
| b  Bend
| \  Slide down

************************************

            
            
Suggest correction
Creating personal tab
Creating personal tab
You can edit any tab online and save it as your Personal.

You can edit, replace or remove any tab part or add personal notes – all changes will be seen only by you.

Personal tabs can be accessed anytime from any device, even offline.
Learn more »
Give kudos to tab author, rate the tab!
1 2 3 4 5
comments
print report bad tab
6 comments total. Showing first comments.
+2 reply
greenday!_! 196 Jul 30, 2017 02:03 PM

i think everything needs to be moved down one string. Other than that looks good to me.

0 reply
SOGGYBEARTOAST 18 Aug 21, 2017 10:50 AM

The rest of the song has been added; enjoy~

guest
You may want to rate the tab now too:
select rating
Wanna post a correction for this tab? Suggest correction