Oops, an error
Loading. Please wait.

Alive Chords

version 1
version 1
385,187 views 1,176 this week
5 commentsread comments
1 2 3 4 5
accurate
x 32
add to favorites
launch autoscroll
font size
0
reset
transpose
0
reset
simplify chords
- display chords -
guitar tuner
Tab Pro tools
  • play this tab
  • loop segment
  • change instrument
  • show fretboard
  • metronome
Autoscroll
slow
fast
+/-
esc
set tempo
stop
Contributor
This is a chord by Nano "maximo", email to alejandromaxgon@udec.cl
Thanks


notes:
s : slide the finger

A: 003330
G: 320023
C: 032010
F: 133211
E: 022100
D: 000232
Esus: 002200
Asus: 000230
B: 224442
Badd9: 224422
C/G: 335553



intro:

|---------------------------------------------------------|
|---------------------------------------------------------|
|--0-----2--4--2--2-2-2-------0-----2--4--2-4s5s4--4--2-2-|
|-----0-----------------0--------0------------------------|X2
|---------------------------------------------------------|
|---------------------------------------------------------|

  (A  G) X4       F   G C



A   G          
  Son, she said
A              G
  have I got a little story for you
A   G                         A     G
    What you thought was your daddy   was nothin' but a...
A   G                      A             G
    While you were sittin' home alone at age thirteen
A   G                   A    G
    Your real daddy was dyin'
                   F      G C
  sorry you didn't see him
          F             G C 
  but I'm glad we talked...



(Chorus) :
   E    G      D          A
Oh I... ooooh, I'm still alive
     E  G      D          A
Hey, I, ooooh, I'm still alive
    E  G      D          A
Hey I, ooooh, I'm still alive
      E   G  A
Hey...oh...




A  G                   A
   Oh, she walks slowly,
A   G                    
   across a young man's room
A  G            A     G
   She said I'm ready...for you
A  G                A         G
   I can't remember anything to this very day
A  G              A  G
   'Cept the look,   the look...
    F             G C      F          G C
Oh, you know where,    now I can't see,  
         E
I just stare...


CHORUS

(E G A) X4


A  Esus  Asus                    A  Esus  A
             Is something wrong, she said
                    A  Esus  Asus   
            Well of course there is 
                    A  Esus  Asus
You're still alive, she said
                        B  Badd9  C/G
Oh, and do I deserve to be
                  B  Badd9  B
Is that the question
         B  Badd9  B
And if so...if so.....who answers...who answers...


CHORUS

yea yea yea yea yea yea...
comments
print report bad tab
5 comments total. Showing first comments.
+1 reply
jTrux22 wrote on July 23 2013, 01:41 am

|---------------------------------------------------------|
|---------------------------------------------------------|
|---------------------------------------------------------|x2
|-2---0----9--7~----0-2-0-2---0----9--7-9^10-9-7-0--------|
|-0-----2/----------0-0-0-0-----2/---------------0--------|
|---------------------------------------------------------|

I don't understand your version of the intro but this is how I've always played it

0 reply
jjbrower wrote on September 20 2013, 12:37 pm

This is much better, I just play 10 9s10s9

0 reply
antonio.gambito wrote on March 24 2014, 09:51 am

b= bend up

E|---------------------------------------------------------|
B|---------------------------------------------------------|
G|-2--------------2-2-2------------------------------------|
D|-2-----7-9-7----2-2-2------7-9-7-9b-9-7------------------|
A|-0----7---------0-0-0----7-------------------------------|
E|---------------------------------------------------------|

sounds a lot cleaner for the intro

I want to post or [tab]
guest
You may want to rate the tab now too:
select rating
Please do not post tabs as comments. Select "correction" instead!