Oops, an error
Loading. Please wait.

All Those Yesterdays chords

version 1
version 1

Whole song

Interactive

15,486 views 30 this week
2 commentsread comments
1 2 3 4 5
x 7
add to favorites
×
Save as Personal and add changes to this tab that will be seen only by you. Learn more ›
×
You can save this tab as Personal to edit and correct it or add notes. All changes will be seen only by you. Learn more »
launch autoscroll
font size
0
reset
transpose
0
reset
simplify chords
display chords
guitar tuner
edit
Autoscroll
slow
fast
+/-
esc
set tempo
stop
Author
Strumming
There is no strumming pattern for this song yet. and get +5 IQ
  this is just the acoustic part. enjoy
give me a good rating. Please?


  F tab          C7 tab
e:--------------|--------------|
B:--------1-----|--------------|
G:-----2--------|--------3-----|
D:--3--------3--|-----2--------|
A:--------------|--3--------3--|
E:--------------|--------------|

Intro: play (F C7) 4 times, then F

Verses:

C7                          F     C7 F
Don't you think you oughtta rest?

C7                          F                   C7 F
Don't you think you oughtta lay your head down?

C7                          F      C7 F
Don't you think you want to sleep?

C7                          F                   C7
Don't you think you oughtta lay your head down?

F       C7
Tonight

            
            
Suggest correction
Creating personal tab
Creating personal tab
You can edit any tab online and save it as your Personal.

You can edit, replace or remove any tab part or add personal notes – all changes will be seen only by you.

Personal tabs can be accessed anytime from any device, even offline.
Learn more »
comments
print report bad tab
2 comments total.
0 reply
golmuso 10 Feb 18, 2014 02:53 PM

On the C, they actually play 321 on the ADG strings respectively, not323 as stated. Just gives that added awkward note that fits so well with the rhythm :)

F tab C7 tab
e:--------------|--------------|
B:--------1-----|--------------|
G:-----2--------|--------1-----|
D:--3--------3--|-----2--------|
A:--------------|--3--------3--|
E:--------------|--------------|

0 reply
Aquarius85 10 Jul 03, 2017 02:51 PM

e:--------------|--------------|
B:--------1-----|--------1-----|
G:-----2--------|--------1-----|
D:--3-------3---|-----2----2---|
A:--------------|--3-----------|
E:--------------|--------------|

THAT'S BETTER

guest
You may want to rate the tab now too:
select rating
Wanna post a correction for this tab? Suggest correction