Oops, an error
Loading. Please wait.

Animal tab

version 1
version 1

Whole song

Interactive

57,264 views 54 this week
2 commentsread comments
1 2 3 4 5
x 8
add to favorites
×
Save as Personal and add changes to this tab that will be seen only by you. Learn more ›
×
You can save this tab as Personal to edit and correct it or add notes. All changes will be seen only by you. Learn more »
launch autoscroll
font size
0
reset
how to read this tab
guitar tuner
backing track
0:00
0:00
edit
Autoscroll
slow
fast
+/-
esc
set tempo
stop
Author
Unregistered
Pearl Jam
Animal
from Vs. 1993

  main riff stone plays
e|----------------------------|
B|----------------------------|
G|----------------------------|
D|-----7----------------------|
A|-------6-5------------------|
E|--5~------------------------|

e|--------------------------------------------------------------------------|
B|--------------------------------------------------------------------------|
G|------------7-7-7/-------------7-7-7/-------------------------------------|
D|-----5h7p5--7-7-7/-------------7-7-7/---------7--------7------------5h7p5-|
A|-5h7--------5-5-5/-------------5-5-5/-----------6-5------6-5----5h7-------|
E|-----------------------------------------------------5~------5~-----------|
                 why would you wanna hurt me? oh

e|------------------------------|----------------|
B|------------------------------|----------------|
G|-7-7-7/-----------------------|----5--7--------|
D|-7-7-7/-----------------------|-7--5--7--5-----|
A|-5-5-5/-----------------------|-7--3--5--5-----|
E|------------------------------|-5--------3-----|
       so frightened...

  during "chorus" mike plays this (wah)    after chorus fill
e|--5-5-5--x-x-x--------------         -------------------------------|
B|--5-5-5--x-x-x--------------         ---10-10-10-8---10-10-10-8-----|
G|---------x-x-x--------------         --------------9------------9-7-|
D|----------------------------         -------------------------------|
A|----------------------------         -------------------------------|
E|----------------------------         -------------------------------|

  beginning of solo
e|----------------18b-18-15h18p15-------|
B|--18b-18b-18-15-----------------18p15-|
G|--------------------------------------|
D|--------------------------------------|
A|--------------------------------------|
E|--------------------------------------|

learn the parts and listen to the song and timing

===========ANIMAL.TAB

From Pearl Jam's recording "Vs."


     ______  ===___   ________  ==========
     |    |  | |  |   | |    |  |  |  |  |
e|:-----------------------------------------|
B|:-----------------------------------------|
G|:------------------------------------PO---|
D|:-----------------------------7-----(^^)--|
A|:--------------------------------6--5--0--|
E|:--5----5----5--5-----5----5--------------|

  This is how the main riff goes.  PO is a pull-off, and the rhythm is
  very weakly shown above the bar.  As far as the second part of the
  verse goes, just hit a D Chord a couple of times like so:

e|:-----------|
B|:-----7-----|
G|:-----7-----|
D|:-----7-----|
A|:-----5-----|
E|:-----------|


And then for the chorus.  Each one of these chords is a measure, and you can
strum them at will.  Listen to the record for the correct feel.

[Chorus]
 ======

e|:--5--------|--8--------|--10-------|--3--------|
B|:--5--------|--8--------|--10-------|--3--------|
G|:--6--------|--9--------|--11-------|--4--------|
D|:--7--------|--7--------|--10-------|--5--------|
A|:--7--------|--7--------|--10-------|--5--------|
E|:--5--------|--5--------|--8--------|--3--------|Here's the outro lead guitar track:

     ________   ________   ________   _______
     | | |  |   | |  | |   |  | | |   | | | |
e|:--x-x-17-x---x-17-x-x---17-x-x-x---x-x-x-x--|
B|:--x-x-17-x---x-17-x-x---17-x-x-x---x-x-x-x--|
G|:--x-x-14-x---x-14-x-x---14-x-x-x---x-x-x-x--|
D|:--------------------------------------------|
A|:--------------------------------------------|
E|:--------------------------------------------|


     ________   ________   ____===   ________
     | | |  |   | |  | |   |   | |   | | |  |
e|:--x-x-17-x---x-17-x-x---17--x-x---x-x-20-20--|
B|:--x-x-17-x---x-17-x-x---17--x-x---x-x-20-20--|
G|:--x-x-14-x---x-14-x-x---14--x-x---x-x-17-17--|
D|:---------------------------------------------|
A|:---------------------------------------------|
E|:---------------------------------------------|


As far as the solo goes.... it's in A with a lot of Wah...  I don't feel
 like taking the time to transcribe it.  Although I recommend you just
 kind of find the right key and play it.  That's usually the way I do with
 my band.  Just know what key you're in and sort of jam, remembering the
 overall thematic things.  Have fun with this.  If you need any help or
 any other songs transcribed, let me know...

            
            
Suggest correction
Creating personal tab
Creating personal tab
You can edit any tab online and save it as your Personal.

You can edit, replace or remove any tab part or add personal notes – all changes will be seen only by you.

Personal tabs can be accessed anytime from any device, even offline.
Learn more »
comments
print report bad tab
2 comments total.
-2 reply
rrlabrie88 60 Dec 13, 2005 01:55 AM

Yeah the solo isn't that hard, Mcready kinda does some cheap soloing on this song (trem picking 3 or 4 frets while quickly bending and releasing between). I hate when he does that, hes still a amazing guitarist though.

0 reply
dennisrossonero 418 Sep 13, 2013 03:22 AM

nice tab.
i think the lick before the D power chords is

-------------------
-------------------
-------------------
-------------------
-------------------
-8-7-5-7-8--------- though :)

guest
Wanna post a correction for this tab? Suggest correction