Oops, an error
Loading. Please wait.

Be Like Wind Tab

615 views 3 this week
1 commentread comment
1 2 3 4 5
accurate
x 5
add to favorites
launch autoscroll
font size
0
reset
how to read this tab
guitar tuner
Autoscroll
slow
fast
+/-
esc
set tempo
stop
Help us to improve Ultimate-Guitar.com Take our survey!
×
-|----------------------------------------------------------------------------|
-|----------------------------------------------------------------------------|
-|-----------------------7*----------------------------------0----------------|
-|------7-----7-----7----7-----6---7------5---4-----5-4-0------4--------------|
-|--5-5---5-5---5-5----0-----0---0------5-------5----------------5------------|
-|------------------------------------3-----3-----3---------------------------|


-|----------------------------------------------------------------------------|
-|----------------------------------------------------------------------------|
-|----------------------------------------------------------------------------|
-|-------7---6---7---6---6-------0-5-4-0-----0-----0------0-3-2-0-----0---0---|
-|-----0-----------------------5-----------5-----5------3---------3-3---3-----|
-|---5-----5---5---5---5-----3-----------3-----3------1-----------------------|


-|----------------------------------------------------------------------------|
-|----------------------------------------------------------------------------|
-|----------------------------------------------------------------------------|
-|------0-5-4-0---0---0---------7-6------0-----0---0-----0-----0------0-------|
-|----5---------5---5-------0-------7------7-----7---7-----7-----7------7-----|
-|--3---------------------5---5--------5-----5---------5-----5------5---------|


-|----------------------------------------------------------------------------|
-|----------------------------------------------------------------------------|
-|----------------------------------------------------------------------------|
-|----0-----0----------0--------0--------0--------0--------0------------------|
-|------7-----7----------12-------12-------12-------12-------12--\------------|
-|--5-----5-----5---10-------10-------10-------10-------10-------\------------|
                    :36

-|----------------------------------------------------------------------------|
-|----------------------------------------------------------------------------|
-|----------------------------------------------------------------------------|
-|----0------0------0------0-------------0-------0-------0-------0------------|
-|------7------7------7------7-------------12------12------12------12---------|
-|--5------5------5------5------5---/-10------10------10------10------10-\----|


-|----------------------------------------------------------------------------|
-|----------------------------------------------------------------------------|
-|----------------------------------------------------------------------------|
-|----0-----0-----0-----0-----0-------0-----0-----0-----0---------------------|
-|------9-----9-----9-----9-----9-------7-----7-----7-----7-------------------|
-|--7-----7-----7-----7-----7-------5-----5-----5-----5-----5--/--------------|
    :49

-|----------------------------------------------------------------------------|
-|----------------------------------------------------------------------------|
-|----------------------------------------------------------------------------|
-|--------0-----------0----------0-----------0---------0-------0-------0------|
-|-----12---12-----12---12----12---12-----12---12----9---9---9---9---9---9----|
-|--10----------10---------10----------10----------7-------7-------7----------|
    :56

-|----------------------------------------------------------------------------|
-|----------------------------------------------------------------------------|
-|----------------------------------------------------------------------------|
-|------0------------0-------0-------0-------0-----------0----------0---------|
-|----9---9--------7---7---7---7---7---7---7---7------12---12----12---12------|
-|--7---------\--5-------5-------5-------5---------10---------10---------10---|
                 1:04

-|----------------------------------------------------------------------------|
-|----------------------------------------------------------------------------|
-|----------------------------------------------------------------------------|
-|-----0----------0-------------0-------0-------0-------0----------0--------0-|
-|--12---12----12---12--\-----9---9---9---9---9---9---9---9-\----7---7----7---|
-|----------10--------------7-------7-------7-------7----------5--------5-----|


-|----------------------------------------------------------------------------|
-|----------------------------------------------------------------------------|
-|----------------------------------------------------------------------------|
-|---------0--------0------------0-------0-------0-------0---------------0----|
-|--7----7---7----7---7--\-----5---5---5---5---5---5---5---5----------12------|
-|-----5--------5------------3-------3-------3-------3-------3-----10---------|
                                                            1:26

-|----------------------------------------------------------------------------|
-|----------------------------------------------------------------------------|
-|----------------------------------------------------------------------------|
-|-------0--------12-----11-----------0---9---8----------0-----0-------0---0--|
-|----12-------12-----------12-\----9-------------9-\------7-----7---7--------|
-|-10-------10--------10----------7-----7---7---7---\--5-----5-----5-----5----|


-|----------------------------------------------------------------------------|
-|----------------------------------------------------------------------------|
-|----------------------------------------------------------------------------|
-|----------0-------0-------12-11---------0-------0-----0-----0-------0-------|
-|-------12------12------12-------12----9---9---9-----9-----9---9---9---------|
-|----10------10------10--------------7-------7-----7-----7-------7-----------|


-|----------------------------------------------------------------------------|
-|----------------------------------------------------------------------------|
-|----------------------------------------------------------------------------|
-|-----0-----0----------------------------------------------------------------|
-|-------7-----7--------------------------------------------------------------|
-|---5-----5-----5------------------------------------------------------------|
     fade  out...
Suggest correction
comments
print report bad tab
1 comment total.
0 reply
D.D. Jimp 10 wrote on September 3 2012, 02:23 pm

¡¡¡Thanks!!!

guest
You may want to rate the tab now too:
select rating
Please do not post tabs as comments. Select "correction" instead!