Oops, an error
Loading. Please wait.

Better Man Bass

version 1
version 1

Whole song

Interactive

28,463 views 36 this week
1 commentread comment
1 2 3 4 5
x 7
add to favorites
launch autoscroll
font size
0
reset
guitar tuner
backing track
0:00
0:00
×
Best way to learn
"Better Man"
Autoscroll
slow
fast
+/-
esc
set tempo
stop
the following song are by Pearl Jam off "Vitology". All songs tabbed by Zeekford

Better Man

[fade in]
G|---------------|
D|---------------|
A|---5-5\-1-3-3\-|
E|-3-------------|

[Verse I]
G|--------------------------|
D|--------------------------|
A|-0-5-5--0-5-5--0-7-7--0-7-|
E|--------------------------|

[Chorus I]
          3x
G|----------|----------|-------------|-------|
D|---------*|----------|-------------|-------|
A|-5\-0\---*|-5---0--0-|-5--5---0--0-|-------|
E|-------3/-|----------|-------------|-3-3-3-|

[Verse II] 1st half is like verse I              world to
G|--------------------------|-----------------|----------|
D|--------------------------|-----------------|----------|
A|-0--5-5-0-7-7-7-7-7-7-7-7-|-5-5-5-5-7-7-7-7-|--7-----5-|
E|--------------------------|-----------------|----------|

[Chorus II]
G|----------------------------|---------------------------|
D|----------------------------|---------------------------|
A|-5-5-5-5\-0-0-0-0\----------|-5-5-5-5--5-5-5-5--0-0-0-0-|
E|-------------------3-3-3-3/-|---------------------------|

[Bridge]
         3x
G|---------|-----------------------|
D|--------*|-----------------------|
A|-10-10\-*|-10-10-10-10-8-8-6-6-5-|
E|---------|-----------------------|

then chorus and a sliding outro
G|-------------|
D|-------------|
A|-5--/12--/17-|
E|-------------|

************************************

| \  Slide down
| /  Slide up

************************************
Suggest correction
comments
print report bad tab
1 comment total.
+1 reply
noodles_wazaman 150 Sep 28, 2003 08:00 PM

Hey you have the verse wrong. It goes something along the lines of:

G|--------------------------------
D|-----0-0----0-0-----2-2-----2-2-
A|--------------------------------
E|-0-2-----0-2----2-4----2-4------

And just play each note a few more times as you need to when the verse builds up

guest
You may want to rate the tab now too:
select rating
Wanna post a correction for this tab? Suggest correction