Oops, an error
Loading. Please wait.

Black Bass Tab

version 2
version 2

Whole song

45,395 views 96 this week
3 commentsread comments
1 2 3 4 5
x 17
add to favorites
launch autoscroll
font size
0
reset
guitar tuner
backing track
0:00
0:00
×
Best way to learn
"Black"
Autoscroll
slow
fast
+/-
esc
set tempo
stop
Author
Difficulty
BLACK - Pearl Jam

It's a bit hard to hear every single note, but I think I managed to get at least the 
part quite well. Email me for comments or corrections. Cheers!
And yeah, Pearl Jam rules. :)

Tabbed By : Me
e-mail: ziritiran.individuum@gmail.com

Tuning: standard

Heee-eeeeeeeyeah

G|-21-------------|
D|----20/---------|
A|----------------|
E|----------------|

G|---------------------------------------------------------------------------|
D|---------------------------------------------------------------------------|
A|--7---7--------0---0-0-4-4-4-4-5-5-5-5-7----7------------------------------|
E|--------0----0--------------------------------0--0-5---5h7p5----5/3--------|

  Sheets of empty canvas...untouched sheets of clay
G|---------------------------------------------------------------------------|
D|---------------------------------------------------------------------------|
A|--7---7--------0---0-0-4-4-4-4-5-5-5-5-7~----------------------------------|
E|--------0----0----------------------------------0~-------------------------|

Were laid spread out before me...as her body once did
G|---------------------------------------------------------------------------|
D|---------------------------------------------------------------------------|
A|--7---7--------0---0-0-4-4-4-4-5-5-5-5-7----7------------------------------|
E|--------0----0--------------------------------0--0-5---5h7p5----5/3--------|

All five horizons revolved around her soul...as the earth to the sun
G|---------------------------------------------------------------------------|
D|---------------------------------------------------------------------------|
A|------7--------0---0-0-4-4-4-4-5-5-5-5-7~----------------------------------|
E|--0-----0----0----------------------------------0~-------------------------|

Now the air I tasted and breathed...has taken a turn
G|----------------------------------------------------7h9-----7-9-12---------|
D|---------------------------------------------------------------------------|
A|--3----3-3-3-3-3-----3---3-3-3-3-3-3-3-3-3-7~------------------------------|
E|---------------------------------------------------------------------------|

oooh and all I taught her was...everything
G|---------------------------------------------------------------------------|
D|---------------------------------------------------------------------------|
A|--3----3-3-3-3-3-----3---3-3-3-3-3-3-3-3-3-7--------7----------------------|
E|----------------------------------------------0----------------------------|

ooooh I know she gave me all...that she wore
G|---------------------------------------------------------------------------|
D|---------------------------------------------------------------------------|
A|---7-7---7-7--5-5---5-5-5--3-3---3-3----7-----7--7-7-7---------------------|
E|-------------------------------------------0-------------------------------|

And now my bitter hands...shape beneath the clouds, of what was everything
G|---------------------------------------------------------------------------|
D|---------------------------------------------------------------------------|
A|---7-7---7-7--5-5---5-5-5--3-3--3-3-3-3------------------------------------|
E|-----------------------------------------0---------------------------------|

All the pictures have...all been washed in black, tattooed everyting
G|---------------------------------------------------------------------------|
D|---------------------------------------------------------------------------|
A|--7------7----7--0-----0-0-4-4-4-4-5-5-5-5-7------7------------------------|
E|------0----------------------------------------0-----0-5---5h7p5---5/3-----|

I take a walk outside...I'm surrounded by some kids at play
G|---------------------------------------------------------------------------|
D|---------------------------------------------------------------------------|
A|--7------7----7--0-----0-0-4-4-4-4-5-5-5-5-7------7------------------------|
E|------0----------------------------------------0------0--------------------|

I can feel their laughter...so why do I sear
G|----------------------------------------------------7h9--------7-9-12------|
D|----------------------------------------------------------7h9--------------|
A|--3----3-3-3-3-3-----3---3-3-3-3-3-3-3-3-3-7~------------------------------|
E|---------------------------------------------------------------------------|

Ooooh and twisted thoughts they spin...around my head
G|---------------------------------------------------------------------------|
D|---------------------------------------------------------------------------|
A|--3----3-3-3-3-3-----3---3-3-3-3-3-3-3-3-3-7--------7--7---7--7------------|
E|----------------------------------------------0----------------------------|

I'm spinnin', ooooh I'm spinnin', how quick the sun can drop away...
G|---------------------------------------------------------------------------|
D|---------------------------------------------------------------------------|
A|---7-7---7-7--5-5---5-5-5--3-3---3-3----7-----7--7-7-7---------------------|
E|-------------------------------------------0-------------------------------|

And now my bitter hands...cradle broken glass of what was everything
G|---------------------------------------------------------------------------|
D|---------------------------------------------------------------------------|
A|---7-7---7-7--5-5---5-5-5--3-3---3-3----7-----7--7-7-7---------------------|
E|-------------------------------------------0-------------------------------|

All the pictures have...all been washed in black, tattooed everything
G|--------------------------------------------------------------------------|
D|--------------------------------------------------------------------------|
A|---7-7---7-7--5-5---5-5-5--3-3---3-3-3---5-5-5-5-----3-3-3-3-3------------|
E|--------------------------------------------------------------------------|

All the love gone bad turned my world to black, tatooed all I see, all that I am,
G|---------------|
D|---------------|
A|---7-7--7-7----|
E|---------------|

all that I'll be

And from here on there's just this line over and over again
G|---------------------------------------------------------------------------|
D|---------------------------------------------------------------------------|
A|---7-7---7-7--5-5---5-5-5--3-3---3-3----7-----7--7-7-7---------------------|
E|-------------------------------------------0-------------------------------|
Suggest correction
comments
print report bad tab
3 comments total.
+3 reply
Blood Bassist 10 Dec 29, 2007 12:02 PM

really good song, i havent looked over the whole tab yet but it looks pretty good from what i learned from it already.
good job

0 reply
livinginmisery 80 May 04, 2009 11:34 AM

correct. vnj

0 reply
ComaAlpha 193 Jul 05, 2016 05:52 AM

the bass does this like Waters and Gilmore Floyd thing at the end and I don't see it implemented in this tab

guest
You may want to rate the tab now too:
select rating
Wanna post a correction for this tab? Suggest correction