Oops, an error
Loading. Please wait.

Breath tab

version 3
version 3

Whole song

Interactive

572 views 1 this week
no commentswrite comment
1 2 3 4 5
2 more votes to show rating
add to favorites
×
Save as Personal and add changes to this tab that will be seen only by you. Learn more ›
×
You can save this tab as Personal to edit and correct it or add notes. All changes will be seen only by you. Learn more »
launch autoscroll
font size
0
reset
how to read this tab
guitar tuner
edit
Autoscroll
slow
fast
+/-
esc
set tempo
stop
-|---------|---0-----------------0-------------|------------------------------|
-|-0-0-0-0-|-----0---------------3-------------|------------------------------|
-|-0-0-0-0-|---------------------0-------------|------------------------------|
-|-0-0-0-0-|-------------------0-4-------------|------------------------------|
-|-0-0-0-0-|-------------0-2-3---5--5----0-2-4-|------------------------------|
-|---------|-0------0-4---------------4--------|------------------------------|
 2 guitars arranged for 1

-|-----------------------0---------------|------------------------------------|
-|------0----------------3---------------|------------------------------------|
-|------x----------------0---------------|------------------------------------|
-|------2-------------0--4---------------|------------------------------------|
-|------2-------0-2-3----5--5----0-2-4---|------------------------------------|
-|-0--0-0--0-4----------------4--------0-|------------------------------------|


-|---------------------------------------------------------------------------|
-|---------------------------------------------------------------------------|
-|-13-\-11-/-13--13-13-13-14\---13-/-14-\-13-/-14--14-\-13-14-/-16-13--------|
-|--x-------------x--x--x--------x------------------x-------x-------x--14\---|
-|-11-\--9-/-11--11-11-11-12\---11-/-12-\-11-/-12--12-\-11-12-/-14-11---x----|
-|---------------------------------------------------------------------12\---|
 G2

-|-----------------------------|---------------|------------------------------|
-|-----------------------------|---------------|------------------------------|
-|---13--13-\-11-/-13-11-------|---------------|------------------------------|
-|-/--x---x------------x--12\--|---------------|------------------------------|
-|---11--11-\--9-/-11--9---x---|-5----0-2-4----|------------------------------|
-|-/----------------------10\--|---4--------0--|------------------------------|
                                G1

-|---------------------------------------------------------------------------|
-|---------------------------------------------------------------------------|
-|-13-\-11-/-13--13-13-13-14\---13-/-14-\-13-/-14--14-\-13-14-/-16-13--------|
-|--x-------------x--x--x--------x------------------x-------x-------x--14\---|
-|-11-\--9-/-11--11-11-11-12\---11-/-12-\-11-/-12--12-\-11-12-/-14-11---x----|
-|---------------------------------------------------------------------12\---|


-|-------------------------|--------------------------------------------------|
-|-------------------------|--------------------------------------------------|
-|---13--13-\-11-/-13--11--|--------------------------------------------------|
-|-/--x---x-------------x--|--------------------------------------------------|
-|---11--11-\--9-/-11---9--|--------------------------------------------------|
-|-/-----------------------|--------------------------------------------------|


-|-----------------0-----------------|--0--------------5--|-------------------|
-|---0-------------------------------|-------------0------|-------------------|
-|-----------7^--------12^-------5^--|--------7^----------|-------------------|
-|--------7^------------------5^-----|-----7^-------------|-------------------|
-|-------------------------5^--------|--------------------|-------------------|
-|-----------------------------------|--------------------|-------------------|
 Verse, G1

-|---0-----------0---------5----0----5---0-----------|------------------------|
-|-3-----------3---------3--------3---------------3--|------------------------|
-|----------------------------------------------0----|------------------------|
-|---------5^--------4h5----------------------4------|------------------------|
-|------5^-------------------------------------------|------------------------|
-|---------------------------------------------------|------------------------|
 Pre-chorus, G1

-|---------0------------0------------------0------------|---------------------|
-|-3-----------------3----3-------0----3------3--3-3-3--|---------------------|
-|-0---------------0--------0-----x----0------0--0-0-0--|---------------------|
-|-4---4h5-------4----------------2----4------4--4-4-4--|---------------------|
-|-5-----------5------------------2----5------5--5-5-5--|---------------------|
-|------------------------------------------------------|---------------------|
 Pre-chorus, G2

-|----0---------------0-----------------------------------0--------------|----|
-|----0---------------3-------------------0---------------3--------------|----|
-|----x---------------0-------------------x---------------0--------------|----|
-|----2-------------0-4-------------------2-------------0-4--------------|----|
-|----2-------0-2-3---5--5----0-2-4-------2-------0-2-3---5--5----0-2-4--|----|
-|-0--0--0-4---------------4--------0--0--0--0-4---------------4---------|----|
 Chorus

-|----------------------0----------------------------------0-------|----------|
-|------0---------------3------------------0---------------3-------|----------|
-|------x---------------0------------------x---------------0-------|----------|
-|------2-------------0-4------------------2-------------0-4-------|----------|
-|------2-------0-2-3---5--5----0-2-4------2-------0-2-3---5-------|----------|
-|-0--0-0--0-4---------------4--------0--0-0--0-4------------------|----------|
                                            With Fill 1

-|-----------------------------|----------------------------------------------|
-|-----------------------------|----------------------------------------------|
-|-11-/-13---13-\-11-/-13-\-11-|----------------------------------------------|
-|-----------------------------|----------------------------------------------|
-|--9-/-11---11-\--9-/-11-\--9-|----------------------------------------------|
-|-----------------------------|----------------------------------------------|
 Fill 1

-|-------------------------------------5-----------------0-|------------------|
-|--0-----------0----3-----------0--------------0----------|------------------|
-|--------7^-------0------5^-----------7------1---1--------|------------------|
-|-----7^--------------5^----------------------------------|------------------|
-|---------------------------------------------------------|------------------|
-|---------------------------------------------------------|------------------|
 2nd Verse

-|-0---------5-----------------5---------------------------|------------------|
-|---0-----3-----------------3---3-------------------------|------------------|
-|-------0-------1---------0-----------1----2--------------|------------------|
-|--------------------4---------------------0--------------|------------------|
-|------------------5---------------------------5----0-2-4-|------------------|
-|------------------------------------------------4--------|------------------|
 Pre-Chorus, G1

-|-0-------0-------0--------0--------------5-------------------|--------------|
-|-0----3----------------3----3-----0----3----------3--3-3-3-3-|--------------|
-|-x----0------0h1-------0------0---x----0------1---0--x-x-x-x-|--------------|
-|-2----4----------------4----------2----4------2---4--4-4-4-4-|--------------|
-|-2----5-------------5--5----------2----5------2---5--5-5-5-5-|--------------|
-|-0--------------------------------0-----------0--------------|--------------|
 Pre-Chorus, G2

-|----0---------------0-----------------------------------0--------------|----|
-|----0---------------3-------------------0---------------3--------------|----|
-|----x---------------0-------------------x---------------0--------------|----|
-|----2-------------0-4-------------------2-------------0-4--------------|----|
-|----2-------0-2-3---5--5----0-2-4-------2-------0-2-3---5--5----0-2-4--|----|
-|-0--0--0-4---------------4--------0--0--0--0-4---------------4---------|----|
 2nd Chorus

-|----------------------0----------------------------------0--|---------------|
-|------0---------------3------------------0---------------3--|---------------|
-|------x---------------0------------------x---------------0--|---------------|
-|------2-------------0-4------------------2-------------0-4--|---------------|
-|------2-------0-2-3---5--5----0-2-4------2-------0-2-3---5--|---------------|
-|-0--0-0--0-4---------------4--------0--0-0--0-4-------------|---------------|
                                               With Fill 1

-|---------------------------------------------------------------------------|
-|---------------------------------------------------------------------------|
-|---------------------------------------------------------------------------|
-|-11--11-11-11--11-11-11--11-11-11--11-11-11--11-11-11--11-11-11--11-11-11--|
-|-11--11-11-11--11-11-11--11-11-11--11-11-11--11-11-11--11-11-11--11-11-11--|
-|--9---9--9--9---9--9--9---9--9--9---9--9--9---9--9--9---9--9--9---9--9--9--|
 Bridge

-|-------|-----------------|--------------------------------------------|-----|
-|-------|-----------------|--------------------------------------------|-----|
-|-------|-----------------|--------------------------------------------|-----|
-|-13-13-|----14-----------|-11--11-11-11--11-11-11--11-11-11--11-11-11-|-----|
-|-13-13-|----14-----------|-11--11-11-11--11-11-11--11-11-11--11-11-11-|-----|
-|-11-11-|-0--12-----------|--9---9--9--9---9--9--9---9--9--9---9--9--9-|-----|
              With Fill 2

-|-------------------------------------|-----------------|--------------------|
-|-------------------------------------|-----------------|--------------------|
-|-------------------------------------|-----------------|--------------------|
-|-11-11-11--11-11-11--11-11-11--13-13-|----14-----------|--------------------|
-|-11-11-11--11-11-11--11-11-11--13-13-|----14-----------|--------------------|
-|--9--9--9---9--9--9---9--9--9--11-11-|-0--12-----------|--------------------|
                                            With Fill 2

-|----------------------------------------------------------|-----------------|
-|----------------------------------------------------------|-----------------|
-|-13--13--13-13--13--13-13-14--14--14--14--14--14-14-14-14-|-----------------|
-|-13--13--13-13--13--13-13-14--14--14--14--14--14-14-14-14-|-----------------|
-|-11--11--11-11--11--11-11-12--12--12--12--12--12-12-12-12-|-----------------|
-|----------------------------------------------------------|-----------------|


-|-----------------------------------------|----------------------------------|
-|-----------------------------------------|----------------------------------|
-|-13--13-13-/-14-14-14--14-\-13-/-14-\-13-|----------------------------------|
-|-----------------------------------------|----------------------------------|
-|-11--11-11-/-12-12-12--12-\-11-/-12-\-11-|----------------------------------|
-|-----------------------------------------|----------------------------------|
 Fill 2

-|--------------------0----------------------------------0----------------|---|
-|-0--0---------------3------------------0---------------3----------------|---|
-|----x---------------0------------------x---------------0----------------|---|
-|----2-------------0-4------------------2-------------0-4----------------|---|
-|----2-------0-2-3---5--5----0-2-4------2-------0-2-3---5--5----0-2-4----|---|
-|----0--0-4---------------4--------0--0-0--0-4---------------4---------0-|---|
 Outro

-|---------------------------------------------------------------------------|
-|---------------------------------------------------------------------------|
-|-13-\-11-/-13--13-13-13-14\---13-/-14-\-13-/-14--14-\-13-14-/-16-13--------|
-|---------------------------------------------------------------------14\---|
-|-11-\--9-/-11--11-11-11-12\---11-/-12-\-11-/-12--12-\-11-12-/-14-11--------|
-|---------------------------------------------------------------------12\---|


-|-----------------------------|--------------|-------------------------------|
-|-----------------------------|--------------|-------------------------------|
-|---13--13-\-11-/-13--11------|--------------|-------------------------------|
-|-/-----------------------12\-|--------------|-------------------------------|
-|---11--11-\--9-/-11---9------|-5----0-2-4---|-------------------------------|
-|-/-----------------------10\-|---4--------0-|-------------------------------|


-|---------------------------------------------------------------------------|
-|---------------------------------------------------------------------------|
-|-13-\-11-/-13--13-13-13-14\---13-/-14-\-13-/-14--14-\-13-14-/-16-13--------|
-|---------------------------------------------------------------------12\---|
-|-11-\--9-/-11--11-11-11-12\---11-/-12-\-11-/-12--12-\-11-12-/-14-11--------|
-|---------------------------------------------------------------------10\---|


-|-----------------------|----------------------------------------------------|
-|-----------------------|----------------------------------------------------|
-|---13--13-\-11-/-13-11-|----------------------------------------------------|
-|-/---------------------|----------------------------------------------------|
-|---11--11-\--9-/-11--9-|----------------------------------------------------|
-|-/---------------------|----------------------------------------------------|


-|---------|----------|---------|---------|-----------------------------------|
-|-----3---|------3---|---------|---------|-----------------------------------|
-|-----2---|------2---|--9---7--|-9---7---|-----------------------------------|
-|-2---0---|--2---0---|--9---7--|-9---7---|-----------------------------------|
-|-2-------|--2-------|--7---5--|-7---5---|-----------------------------------|
-|-0-------|--0-------|--0------|-0-------|-----------------------------------|
 Solo Rhythm(repeat)  After awhile it changes to this      fade out...end!

-|-----------|--------------------------------------|-------------------------|
-|-15b17-----|-15b17-15b17vvvv-15b17-15b17-15b17r15-|-------------------------|
-|-----------|--------------------------------------|-------------------------|
-|-----------|--------------------------------------|-------------------------|
-|-----------|--------------------------------------|-------------------------|
-|-----------|--------------------------------------|-------------------------|
    Solo Mikey!

-|-12----------------------------------------------|--------------------------|
-|----15-12----12------------------12----12--------|--------------------------|
-|----------14---14p12-14p12-------12----12--------|--------------------------|
-|---------------------------14-14----14----14vvvv-|--------------------------|
-|-------------------------------------------------|--------------------------|
-|-------------------------------------------------|--------------------------|


-|--------------------------------------------|------------------|-------------|
-|--------------------------------------------|-0-0--------------|-------------|
-|--------------------------------------------|-0-0--------------|-------------|
-|-12-----------------------------------------|------------------|-------------|
-|----14--12p10h12-12b13r12-10----10-12-12vvv-|-----12b14--14-14-|-------------|
-|-----------------------------12-------------|------------------|-------------|
                                                     hold----------------------|

-|---------------------------------------------------------------------------|
-|---------------------------------------------------------------------------|
-|---------------------------------------------------------------------------|
-|----------------------12-14p12-----14p12-----------------------------------|
-|-12p10----10----12h14----------14--------14-12-12b13r12-10-10-12b13r12-10--|
-|-------12----12------------------------------------------------------------|


-|-------|------------------------------------|----------------------------|--|
-|-------|------------------------------------|-------15-------15-------15-|--|
-|-------|-14--14--12--12---------12----12-12-|-14b16----14b16----14b16----|--|
-|-------|-14--14--12--12--12-----12----12-12-|----------------------------|--|
-|-10----|--------------------14-----14-------|----------------------------|--|
-|----12-|------------------------------------|----------------------------|--|


-|--------|-0-0-17b19---19-19-19-19-19-19-19-19-19-19-19r17-17-17-|------------|
-|-----15-|-0-0---------------------------------------------------|------------|
-|-b16----|-------------------------------------------------------|------------|
-|--------|-------------------------------------------------------|------------|
-|--------|-------------------------------------------------------|------------|
-|--------|-------------------------------------------------------|------------|
                  hold bend----------------------------------------------------|

-|-17p15----15-------------|-------15-------15-------15-------15-------15-|---|
-|-------17----17-17-17-17-|-15h17----15h17----15h17----15h17----15h17----|---|
-|-------------------------|----------------------------------------------|---|
-|-------------------------|----------------------------------------------|---|
-|-------------------------|----------------------------------------------|---|
-|-------------------------|----------------------------------------------|---|


-|-------15-------15-------15------------|------------12---------------------|
-|-15h17----15h17----15h17----15h17p15-\-|-0-------12---15p12----------------|
-|---------------------------------------|-0-14b16-----------14p12----12-12--|
-|---------------------------------------|-------------------------14--------|
-|---------------------------------------|-----------------------------------|
-|---------------------------------------|-----------------------------------|
                                          Not sure here

-|------------------------|-----------------------------|---------------------|
-|------------------------|-----------------------------|---------------------|
-|-12-15-14p12---14-12----|-14-12-----------------------|---------------------|
-|------------14-------14-|-14-12--14-12----------------|---------------------|
-|------------------------|--------------14-12-10-12-12-|---------------------|
-|------------------------|-----------------------------|---------------------|


-|-15b18-r15-15p12----12--12-15-12-15-12----12-15p12--15p12--15p12--15p12----|
-|-----------------15--------------------15---------15-----15-----15-----15--|
-|---------------------------------------------------------------------------|
-|---------------------------------------------------------------------------|
-|---------------------------------------------------------------------------|
-|---------------------------------------------------------------------------|


-|-12-12-12-12-15b17r15\-|------------------------0---0-0-0---0-0-----0---|---|
-|-----------------------|--------------------0---3h5-5-5-5/8-7-5-3/5-5/8-|---|
-|-----------------------|--2b4r2p0-2-2-2-2/4---4-------------------------|---|
-|-----------------------|------------------------------------------------|---|
-|-----------------------|------------------------------------------------|---|
-|-----------------------|------------------------------------------------|---|


-|-0-0----0--0-0---0-0--|------------------------------|----------------------|
-|-8-7\5-/10-8-7\5-5-5--|-12-12--12-12-12--12-12-12-12-|----------------------|
-|----------------------|-12-12--12-12-12--12-12-12-12-|----------------------|
-|----------------------|------------------------------|----------------------|
-|----------------------|------------------------------|----------------------|
-|----------------------|------------------------------|----------------------|


-|-----------------------|-----------------------|-----------------------|----|
-|-14-12-----------------|-14-12-----------------|-14-12-----------------|----|
-|-14-12--12-------------|-14-12--12-------------|-14-12--12-------------|----|
-|-----------14-12-------|-----------14-12-------|-----------14-12-------|----|
-|-----------------14-12-|-----------------14-12-|-----------------14-12-|----|
-|-----------------------|-----------------------|-----------------------|----|


-|-----------------------|-17b19-17-15---------------------------|------------|
-|-14-12-----------------|-------------17---12----12-------------|------------|
-|-14-12--12-------------|---------------------14----14p12-14-12-|------------|
-|-----------14-12-------|---------------------------------------|------------|
-|-----------------14-12-|---------------------------------------|------------|
-|-----------------------|---------------------------------------|------------|


-|-----------------------------|-------------------------------|--------------|
-|-------12----12-14--12-------|-------------------------------|--------------|
-|-------12----12-14--12-------|-12/14-14-14-14-14-14-14-14\12-|--------------|
-|-14-14----14-----------14-14-|--x-----x--x--x--x--x--x--x----|--------------|
-|-----------------------------|-10/12-12-12-12-12-12-12-12\10-|--------------|
-|-----------------------------|-------------------------------|--------------|


-|-------------------------------------------|--------------------------------|
-|-------------------------------------------|--------------------------------|
-|-12\9--9-9-9--9------9/12-12--12\11\9-9/11-|--------------------------------|
-|--x----x-x-x--/------x-----x---x------x----|--------------------------------|
-|-10\7--7-7-7--/------7/10-10--10\-9\7-7/-9-|--------------------------------|
-|--------------/----------------------------|--------------------------------|
             trem.pick                  fade out

            
            
Suggest correction
Creating personal tab
Creating personal tab
You can edit any tab online and save it as your Personal.

You can edit, replace or remove any tab part or add personal notes – all changes will be seen only by you.

Personal tabs can be accessed anytime from any device, even offline.
Learn more »
Give kudos to tab author, rate the tab!
1 2 3 4 5
comments
print report bad tab
guest
You may want to rate the tab now too:
select rating
Wanna post a correction for this tab? Suggest correction