Oops, an error
Loading. Please wait.

Breath tab

version 4
version 4

Whole song

Interactive

85 views 6 this week
no commentswrite comment
1 2 3 4 5
3 more votes to show rating
add to favorites
×
Save as Personal and add changes to this tab that will be seen only by you. Learn more ›
×
You can save this tab as Personal to edit and correct it or add notes. All changes will be seen only by you. Learn more »
launch autoscroll
font size
0
reset
how to read this tab
guitar tuner
edit
Autoscroll
slow
fast
+/-
esc
set tempo
stop
Author
Difficulty
About this tab version
Studio version of Breath, from the Singles soundtrack. Also appeared on Rearviewmirror. Was this info helpful? Yes No
BREATH
As recorded by Pearl Jam
     
[Gtr I](E A D G B E)
5x033 can be substituted for this chord

[Gtr I Intro]
e|--5-5-5-(0)/--|
B|--3-3-3-(0)/--|
G|--0-0-0-(0)/--|
D|--x-x-x-(0)/--|
A|--5-5-5-(0)/--|
E|--------------|

[Main Riff]
(Play around with strumming, particularly adding arpeggio strums occasionally for ceratain chords)
e|-------0------------------5--5------------------0------------------5--5-----------------0----|
B|-------0------------------3--3------------------0------------------3--3-----------------0----|
G|--9\---x------------------0--0------------9\----x------------------0--0-----------9\----x----|
D|--9\---2----------2p0-----x--x------------9\----2----------2p0-----x--x-----------9\----2----|
A|--7\---2------0-2------5--5--5----0-2/7---7\----2------0-2------5--5--5----0-2/7--7\----2----|
E|-(0)---0--0-4-------------------4--------(0)----0--0-4-------------------4-------(0)----0----|

[Lead Part]         ~~ I just slide index here ~~                    ~~
e|---------------------------------------------------------------------|
B|---------------------------------------------------------------------|
G|-13-11-13-13/14-14--14-----14-14-----14/16\13---13-13-13-13-11/13-11-|
D|---------------------------------------------------------------------|
A|-11--9-11-11/12-12--12\11--12-12\11--12/14\11---11-11-11-11--9/11--9-|
E|---------------------------------------------------------------------|

[Lead played twice. 2nd time omit this part]
e|-------------------|
B|-------------------|
G|-9\----------------|
D|-----------2-2-----|
A|-7\--2---2---------|
E|-------5-------0---|

[Verse]
[This section played clean. Most of the Verse you fool around with these notes and just provide atmosphere]
e|---0----5---------------------------|
B|-----0--3--------------<5>----|
G|--------0----------<5>--------|
D|--------x------<5>------------|
A|--------5--<5>----------------|
E|-0----------------------------------|

("Oh, tamper if you like between the doors, oh yeah, huh, huh" Part)
(Simply go between these two chords and experiment with strumming patterns and arppegio strums here and there)
e|-0---5----|
B|-0---3----|
G|-x---0----|
D|-2---x----|
A|-2---5----|
E|-0--------|

("Come, here it comes, there it goes, when it comes" Part)
(No point tabbing out. Listen for strumming. Variation of the lead part isn't hard to figure out)
e|----|----|----|----|---|---|
B|----|----|----|----|---|---|
G|----|----|----|----|---|---|
D|-11-|-14-|-11-|-14-|-6-|-7-|
A|-11-|-14-|-11-|-14-|-6-|-7-|
E|--9-|-12-|--9-|-11-|-4-|-5-|

(During the solo you just play parts and chords that have already been detailed.)

[Lyrics]
Oh, tonight began with anything
Shadows, a light, a warm breath and a scream, ah yeah
Oh, tamper if you like between the doors, oh yeah, huh, huh
Oh, can't expect to go out, to go out
With anything, anything more
Oh, reach the door, a breath and a scr, oh, reach the door
And a nada lada yeah
Life ain't what it's worth, a breath and a scr, oh, reach the door
All these reaching hands out grabbin' things, grabbin' me
Day in, day out, accumulating, ah yeah
Whoa, I suggest you step out on your porch
Oh yeah, huh, huh, huh, huh, yeah
Run away my son, to see it all, oh, see the world
Oh, reach the door, a breath and a scr, oh, reach the door
Oh, and a nada lada yeah
Life ain't what it's worth, a breath and a scr, oh, reach the door
Come, here it comes, there it goes, when it comes,
Where it goes, where it comes, can't see through the faith,
Ooh, come, here it comes, there it goes, grasp what you can,
Don't you know there's something inside your hand, yeah,
Oh, if I knew where it was I would take you there,
There's much more than this, ooh, whoa, much more than this
Oh, see the world, much more than, oh,
Much more than
Why?

            
            
Suggest correction
Creating personal tab
Creating personal tab
You can edit any tab online and save it as your Personal.

You can edit, replace or remove any tab part or add personal notes – all changes will be seen only by you.

Personal tabs can be accessed anytime from any device, even offline.
Learn more »
Give kudos to tab author, rate the tab!
1 2 3 4 5
comments
print report bad tab
guest
You may want to rate the tab now too:
select rating
Wanna post a correction for this tab? Suggest correction