Oops, an error
Loading. Please wait.

Comatose Tab

version 2
version 2

Whole song

1,891 views 1 this week
no commentswrite comment
1 2 3 4 5
accurate
x 3
add to favorites
launch autoscroll
font size
0
reset
how to read this tab
guitar tuner
Autoscroll
slow
fast
+/-
esc
set tempo
stop
Help us to improve Ultimate-Guitar.com Take our survey!
×
Hello everyone, this is my first ever tab, and it looks pretty good. The one for this 
on the page is great, but it had some bits missing. I'm still working on the solo, it 
be done soon. Cheers.


(both guitars)
e--------------------------------|
b-3-----3----3----------3-----3--|
g-2--2--2----2--2-------2--2--2--|
D-0--2--0----0--2--2----0--2--0--|
A----0--0-------0--2-------0--0--|
E------------------0-------------|

Verse

(guitar 1)
----------------------------------------------------------|
----------------------------------------------------------|
----------------------------------------------------------|
--9-9-9-9--9--8--8-8-8------------------------------------|
--9-9-9-9--7--6--8-8-8------------------------------------|
--7-7-7-7--------6-6-6-- (x8)- x4 alone, x4 with guitar 2-|
Eddie sings(Consider me an object...)

(guitar 2)
------------------------|
------------------------|
--8-8-8-8--9--8---------|
--9-9-9-9--9--8--8-8-8--|
--9-9-9-9--7--6--8-8-8--|
--7-7-7-7--------6-6-6--| (x4)
Eddie sings(And I'll be hangin' upside down...)

Chorus

(both guitars)
---------------------------------|
--3-----3----3----------3-----3--|
--2--2--2----2--2-------2--2--2--|
--0--2--0----0--2--2----0--2--0--|
-----0--0-------0--2-------0--0--|
-------------------0-------------|
Eddie (Feel it Risin'...)

-------------------|
-------------------|
-------------------|
--4-4-4-4-5-5-5-5--|
--4-4-4-4-5-5-5-5--|
--2-2-2-2-3-3-3-3--|
Eddie (Comatose, with no fear of Fallin')

Short solo

guitar 1

-----------------------------------------------------|
-----------------------12------------------------10--|
--12-11-9-7----12-11-9-10----12-11-9-7----12-11-9-8--|
-----------------------------------------------------|
-----------------------------------------------------|
-----------------------------------------------------|

guitar 2

-------------------------------------------------|
---------------------12----------------------10--|
---------------------10----------------------10--|
--9---9--8----9---9--------9---9--8----9---9-----|
----9-----------9------------9-----------9-------|
-------------------------------------------------|

Verse

(guitar 1)
------------------------|
------------------------|
------------------------|
--9-9-9-9--9--8--8-8-8--|
--9-9-9-9--7--6--8-8-8--|
--7-7-7-7--------6-6-6--| (x4)


(guitar 2)
------------------------|
------------------------|
--8-8-8-8--9--8---------|
--9-9-9-9--9--8--8-8-8--|
--9-9-9-9--7--6--8-8-8--|
--7-7-7-7--------6-6-6--| (x4)
Eddie sings(Consider me an abcess...)

Chorus

(both guitars)
---------------------------------|
--3-----3----3----------3-----3--|
--2--2--2----2--2-------2--2--2--|
--0--2--0----0--2--2----0--2--0--|
-----0--0-------0--2-------0--0--|
-------------------0-------------|
Eddie (Feel it Risin'...)

-------------------|
-------------------|
-------------------|
--4-4-4-4-5-5-5-5--|
--4-4-4-4-5-5-5-5--|
--2-2-2-2-3-3-3-3--|
Eddie (Comatose, with no fear of Fallin')

---------------------------------|
--3-----3----3----------3-----3--|
--2--2--2----2--2-------2--2--2--|
--0--2--0----0--2--2----0--2--0--|
-----0--0-------0--2-------0--0--|
-------------------0-------------|
Eddie (Feel it Risin'...)

(both guitars)
(palm muted)
---------------------------------------------------------|
---------------------------------------------------------|
---------------------------------------------------------|
---------------------------------------------------------|
---------------------------------------------------------|
--2-2-2-3-3-5---2-2-2-3-3-5---0-0-0-2-2-3---0-0-0-2-2-3--|

-----------------------------------|
--------------------------------3--|
--------------------------------2--|
--------------------------------0--|
--------------------------------0--|
--2-2-2-3-3-5---2-2-2-3-3-5--------|

(Solo)

Verse

(guitar 1)
------------------------|
------------------------|
------------------------|
--9-9-9-9--9--8--8-8-8--|
--9-9-9-9--7--6--8-8-8--|
--7-7-7-7--------6-6-6--| (x4)

(guitar 2)
-----------------------------------------------------------------------------|
-----------------------------------------------------------------------------|
--8-8-8-8--9--8--------------------------------------------------------------|
--9-9-9-9--9--8--8-8-8-------------------------------------------------------|
--9-9-9-9--7--6--8-8-8-------------------------------------------------------|
--7-7-7-7--------6-6-6-- (x8)- x4 while guitar 1 does Solo, x4 with guitar 1-|
Eddie sings(Yeah I'll be hangin' upside down...)

Chorus

(both guitars)
---------------------------------|
--3-----3----3----------3-----3--|
--2--2--2----2--2-------2--2--2--|
--0--2--0----0--2--2----0--2--0--|
-----0--0-------0--2-------0--0--|
-------------------0-------------|
Eddie (Feel it Risin'...)

-------------------|
-------------------|
-------------------|
--4-4-4-4-5-5-5-5--|
--4-4-4-4-5-5-5-5--|
--2-2-2-2-3-3-3-3--|
Eddie (Comatose, with no fear of Fallin')

---------------------------------|
--3-----3----3----------3-----3--|
--2--2--2----2--2-------2--2--2--|
--0--2--0----0--2--2----0--2--0--|
-----0--0-------0--2-------0--0--|
-------------------0-------------|
Eddie (Feel it Risin'...)

-------------------|
-------------------|
-------------------|
--4-4-4-4-5-5-5-5--|
--4-4-4-4-5-5-5-5--|
--2-2-2-2-3-3-3-3--|

------------|
--3-----3---|
--2--2--2---|
--0--2--0---|
-----0--0---|
------------|

That's all Folks
Suggest correction
Give kudos to tab author, rate the tab!
1 2 3 4 5
comments
print report bad tab
guest
You may want to rate the tab now too:
select rating
Please do not post tabs as comments. Select "correction" instead!