Oops, an error
Loading. Please wait.

Corduroy Bass Tab

version 1
version 1

Whole song

Interactive

5,680 views 9 this week
1 commentread comment
1 2 3 4 5
worth learning
x 3
add to favorites
launch autoscroll
font size
0
reset
guitar tuner
Autoscroll
slow
fast
+/-
esc
set tempo
stop
Help us to improve Ultimate-Guitar.com Take our survey!
×
Song Title: corduroy
Artist: pearl jam
----------------------------------------------

This is my attempt at Pearl Jam's corduroy
It is a good attept except for the intro.
I know the way the intro is played live, but 
the album version is questionable.

Normal tuning E,A,D,G
Have fun with it

By:  THE WOLF


Intro

D---7/9-9------------------------
A-7------------------------------
E---------5-8--------------------

Verse

A-888-7-2-------------(repeat till chorus)

Chorus
start to play when he says the word "take"
A-333-2-0-------------------
E---------3-----------------

bridge
"everything has changed....."
A-22222222-33333333----------

Ending

A-7777777777777777-0--3------

Submitted by:  The wolf (yu125676@yorku.ca)
Suggest correction
Give kudos to tab author, rate the tab!
1 2 3 4 5
comments
print report bad tab
1 comment total.
0 reply
Sp00nman94 166 wrote on July 23 2008, 10:11 pm

the verse should be this:

G|---------------------------|
D|---------------------------|
A|--888-7/-------------------|
E|---------3-----------------|

guest
You may want to rate the tab now too:
select rating
Wanna post a correction for this tab? Suggest correction