Oops, an error
Loading. Please wait.

Corduroy Tab

version 2
version 2

Whole song

Interactive

18,899 views 30 this week
5 commentsread comments
1 2 3 4 5
excellent!
x 9
add to favorites
launch autoscroll
font size
0
reset
how to read this tab
guitar tuner
Tab Pro tools
  • play this tab
  • loop segment
  • change instrument
  • show fretboard
  • metronome
×
Best way to learn
"Corduroy"
Autoscroll
slow
fast
+/-
esc
set tempo
stop
Contributor
Title: Corduroy
Artist: Pearl Jam
Album: Live on Two Legs
From: Jimbopo [unsupersmith@gmail.com]

Guitar 1-Standard tuning eBGDAE light distortion
Guitar 2-Standard tuning eBGDAE moderate distortion
Guitar 3-Standard tuning eBGDAE moderate distortion
(Bass not tabbed)

Track Length: 5:05
Lyrics aren't quite lined up.

 G1		    Em			          A	       C9    Em
 Song begins 0:03  Intro (4x repeat)0:12
e|--------||-----||------------------------------|--------------------------|
B|---8*vv-||-----||------------------------------|--------------------------|
G|-9------||-0-0-||------------------------------|--------------------------|
D|-7------||-0-0-||----9vv--9vv-----9vv----9v-9v-|----9vv--9v--------9----9-|
A|--------||-0-0-||-7-----7----7v-7-7--7-7v--7---|-0-----0---0-7vv-7-7----7-|
E|--------||-----||------------------------------|-------------8vv-8-7--8p7-|

*1/2 step bend and release
 G1

e|---------------------------------|--------------------------|-------------|
B|---------------------------------|--------------------------|-------------|
G|---------------------------------|--------------------------|-------------|
D|------9vv--9vv-----9vv----9v--9v-|----9vv--9v--------9----9-|-------------|
A|---7vv---7v---7vv7v7--7v7v--7v---|-0-----0---0-7vv-7-7----7-|-------------|
E|-7-------------------------------|-------------8vv-8-7--8p7-|-------------|


 G1

e|---------------------------------|--------------------------|-------------|
B|---------------------------------|--------------------------|-------------|
G|---------------------------------|--------------------------|-------------|
D|------9----9-------9------9---9--|----9vv--9v--------9----9-|-------------|
A|---7-----7----7--7-7--7-7---7----|-0-----0---0-7vv-7-7----7-|-------------|
E|-7-------------------------------|-------------8vv-8-7--8-7-|-------------|


 G2 enters at 0:27

e|---------------------------------|--------------------------|-------------|
B|---------------------------------|--------------------------|-------------|
G|---9-----------------------------|-2---------------5--------|-------------|
D|---9-----------------------------|-2---------------5--------|-------------|
A|---7-----------------------------|-0---------------3--------|-------------|
E|---7-----------------------------|-0------------------------|-------------|


 G1
 				    Transition to verse
e|---------------------------------|---------------------------------|------|
B|---------------------------------|-----------------0-0-0-0-0-0-0-0-|------|
G|---------------------------------|-----------------9-9-9-9-9-9-9-9-|------|
D|------9vv--9vv-----9vv----9v--9v-|-9-9-9-9-9-9-9-9-9-9-9-9-9-9-9-9-|------|
A|---7-----7----7--7-7--7-7---7----|-0-0-0-0-0-0-0-0-7-7-7-7-7-7-7-7-|------|
E|-7-------------------------------|-0*0-0-0-0-0-0-0-8-8-8-8-8-8-8-8-|------|

				    *Strike viciously
 G2

e|---------------------------------|---------------------------------|------|
B|---------------------------------|---------------------------------|------|
G|---9-----------------------------|-2---------------5---------------|------|
D|---9-----------------------------|-2---------------5---------------|------|
A|---7-----------------------------|-0---------------3---------------|------|
E|---7-----------------------------|-0-------------------------------|------|


 G1
  Verse (5x repeat)0:42
e|---------------3--3--3-3-3-3-|-1---(1)---------3--3-3-3-3-|---------------|
B|-10-10(10)(1)--3--3--3-3-3-3-|-1---(1)-(1)--3--3--3-3-3-3-|---------------|
G|-10-10(10)(0)--0--0--0-0-0-0-|-2-2-(2)-(0)--0--0--0-0-0-0-|---------------|
D|-10-10(10)(2)--0--0--0-0-0-0-|-3-3-(3)-(2)--0--0--0-0-0-0-|---------------|
A|-8--8-(8)-(3)--2-----2-2-2-2-|-3-3-(3)-(3)--2-----2-2-2-2-|---------------|
E|----------(3)--3-----3-3-3-3-|---1-----(3)--3-----3-3-3-3-|---------------|

 G2+G3

e|------------------3--3-3-3-3-|------------------3--3-3-3-3-|--------------|
B|-10-10-10-(9)-----3--3-3-3-3-|-10-10-10-(9)-----3--3-3-3-3-|--------------|
G|-10-10-10-(9)-----4--4-4-4-4-|-10-10-10-(9)-----4--4-4-4-4-|--------------|
D|-10-10-10-(9)-5-x----5-5-5-5-|-10-10-10-(9)-5-x----5-5-5-5-|--------------|
A|-8--8--8--(7)-5-x----5-5-5-5-|-8--8--8--(7)-5-x----5-5-5-5-|--------------|
E|--------------3-x----3-3-3-3-|--------------3-x----3-3-3-3-|--------------|
 	The wait-ing drove me mad. You're fin'ly here and I'm a mess.

 G1

e|--------------3--3--3-3-3-3-|-1---(1)---------3--3-3-3-3-|-----------3-3--|
B|-1-1-(1)-(1)--3--3--3-3-3-3-|-1---(1)-(1)--3--3--3-3-3-3-|-1-1-1--1--3-3--|
G|-2-2-(2)-(0)--0--0--0-0-0-0-|-2-2-(2)-(0)--0--0--0-0-0-0-|-2-2-2--0--0-0--|
D|-3-3-(3)-(2)--0--0--0-0-0-0-|-3-3-(3)-(2)--0--0--0-0-0-0-|-3-3-3--2--0-0--|
A|-3-3-(3)-(3)--2-----2-2-2-2-|-3-3-(3)-(3)--2-----2-2-2-2-|-3-3-3--3--2-2--|
E|---------(3)--3-----3-3-3-3-|---1-----(3)--3-----3-3-3-3-|--------3--3-3--|

 G2+G3

e|----------------3--3-3-3-3-|----------------3--3-3-3-3-|----------------3-|
B|-10-10-10-(9)---3--3-3-3-3-|-10-10-10-(9)---3--3-3-3-3-|-10-10-10-(9)---3-|
G|-10-10-10-(9)---4--4-4-4-4-|-10-10-10-(9)---4--4-4-4-4-|-10-10-10-(9)---4-|
D|-10-10-10-(9)-5-x--5-5-5-5-|-10-10-10-(9)-5----5-5-5-5-|-10-10-10-(9)-5---|
A|-8--8--8--(7)-5-x--5-5-5-5-|-8--8--8--(7)-5----5-5-5-5-|-8--8--8--(7)-5---|
E|--------------3----3-3-3-3-|--------------3----3-3-3-3-|--------------3---|
  Take your entrance back. Can't let you roam inside my head. I don't wanna

 G1
  Chorus (4x repeat)1:00
e|-3--3-3-------------3-3-----|-3--3-3-------------3-3-----|----------------|
B|-3--3-3-3--3(3)-3---3---3---|-3--3-3-3--3(3)-3---3---3---|----------------|
G|-0--0-0-2--2(2)-2---0-----0-|-0--0-0-2--2(2)-2---0-----0-|----------------|
D|-2--2---0--0(0)-0---0-------|-2--2---0--0(0)-0---0-------|----------------|
A|-3--3---2--2(2)-0---2-------|-3--3---2--2(2)-0---2-------|----------------|
E|----------------2---3-------|----------------2---3-------|----------------|

 G2+G3

e|--------------------3-3-----|--------------------3-3-----|----------------|
B|-5--5-3-3--3(3)-(2)-3---3---|-5--5-3-3--3(3)-(2)-3---3---|----------------|
G|-5--5-4-4--4(4)-(2)-0-----0-|-5--5-4-4--4(4)-(2)-0-----0-|----------------|
D|-5--5-4-4--4(4)-(2)-0-------|-5--5-4-4--4(4)-(2)-0-------|----------------|
A|-3--3-2-2--2(2)-(0)-2-------|-3--3-2-2--2(2)-(0)-2-------|----------------|
E|--------------------3-------|--------------------3-------|----------------|
  Take what you can't give. I would rather starve than eat your bread.

 G1

e|-3--3-3-------------3-3-----|-3--3-3-------------3-3-----|----------------|
B|-3--3-3-3--3(3)-3---3---3---|-3--3-3-3--3(3)-3---3---3---|----------------|
G|-0--0-0-2--2(2)-2---0-----0-|-0--0-0-2--2(2)-2---0-----0-|----------------|
D|-2--2---0--0(0)-0---0-------|-2--2---0--0(0)-0---0-------|----------------|
A|-3--3---2--2(2)-0---2-------|-3--3---2--2(2)-0---2-------|----------------|
E|----------------2---3-------|----------------2---3-------|----------------|

 G2+G3

e|--------------------3-3-----|--------------------3-3-----|----------------|
B|-5--5-3-3--3(3)-(2)-3---3---|-5--5-3-3--3(3)-(2)-3---3---|----------------|
G|-5--5-4-4--4(4)-(2)-0-----0-|-5--5-4-4--4(4)-(2)-0-----0-|----------------|
D|-5--5-4-4--4(4)-(2)-0-------|-5--5-4-4--4(4)-(2)-0-------|-0--------------|
A|-3--3-2-2--2(2)-(0)-2-------|-3--3-2-2--2(2)-(0)-2-------|---2------------|
E|--------------------3-------|--------------------3-------|-----3----------|
  I would rather run but I can't walk. Guess I'll lie alone just like before.

 G1
  Bridge (2x repeat)1:13
e|-------------------------------|--------------------------|---------------|
B|-------------------------------|--------------------------|---------------|
G|-------------------------------|--------------------------|---------------|
D|----9vv--9vv-----9vv----9v--9v-|----9vv--9v--------9v---9-|---------------|
A|-7v----7v---7v-7-7--7-7---7----|-0-----0---0-7vv-7-7v---7-|---------------|
E|-------------------------------|-------------8vv-8-7v-8-7-|---------------|

 G2

e|-3--3--3-3--3--3-3--3-3-3-3-|-0--0--0-0-0-------------------|-------------|
B|-5--5--5-5--5--5-5--5-5-5-5-|-2--2--2-2-2-5--(5)5--5-5--5-5-|-------------|
G|-4--4--4-4--4--4-4--4-4-4-4-|-2--2--2-2-2-5--(5)5--5-5--5-5-|-------------|
D|-2--2--2-2--2--2-2--2-2-2-2-|-2--2--2-2-2-5--(5)5--5-5--5-5-|-------------|
A|-2--2--2-2--2--2-2--2-2-2-2-|-0--0--0-0-0-3--(3)3--3-3--3-3-|-------------|
E|-0--0--0-0--0--0-0--0-0-0-0-|-------------------------------|-------------|

 G3
	(2x repeat)
e|-x--------------------------|-7-x-x-x-x-x-x-x-x-x-x-x-x-x-x-|-------------|
B|-0--0--0-0--0--0-0--0-0-0-0-|-8-0-0-0-0-0-0-0-0-0-0-0-0-0-0-|-------------|
G|-9--9--9-9--9--9-9--9-9-9-9-|-9-9-9-9-9-9-9-9-9-9-9-9-9-9-9-|-------------|
D|-9--9--9-9--9--9-9--9-9-9-9-|-9-9-9-9-9-9-9-9-9-9-9-9-9-9-9-|-------------|
A|-7--7--7-7--7--7-7--7-7-7-7-|-7-7-7-7-7-7-7-7-7-7-7-7-7-7-7-|-------------|
E|-7--7--7-7--7--7-7--7-7-7-7-|-8-8-8-8-8-8-8-8-8-8-8-8-8-8-8-|-------------|


 G1

e|---------------------------------|---------------------------------|------|
B|---------------------------------|-----------------0-0-0-0-0-0-0-0-|------|
G|---------------------------------|-----------------9-9-9-9-9-9-9-9-|------|
D|------9vv--9vv-----9vv----9v--9v-|-9-9-9-9-9-9-9-9-9-9-9-9-9-9-9-9-|------|
A|---7-----7----7--7-7--7-7---7----|-0-0-0-0-0-0-0-0-7-7-7-7-7-7-7-7-|------|
E|-7-------------------------------|-0-0-0-0-0-0-0-0-8-8-8-8-8-8-8-8-|------|

 G2

e|-3--3--3-3--3--3-3--3-3-3-3-|-0--0--0-0-0-------------------|-------------|
B|-5--5--5-5--5--5-5--5-5-5-5-|-2--2--2-2-2-5--(5)5--5-5--5-5-|-------------|
G|-4--4--4-4--4--4-4--4-4-4-4-|-2--2--2-2-2-5--(5)5--5-5--5-5-|-------------|
D|-2--2--2-2--2--2-2--2-2-2-2-|-2--2--2-2-2-5--(5)5--5-5--5-5-|-------------|
A|-2--2--2-2--2--2-2--2-2-2-2-|-0--0--0-0-0-3--(3)3--3-3--3-3-|-------------|
E|-0--0--0-0--0--0-0--0-0-0-0-|-------------------------------|-------------|

 G3

e|-x--------------------------|-7-x-x-x-x-x-x-x-x-x-x-x-x-x-x-|-------------|
B|-0--0--0-0--0--0-0--0-0-0-0-|-8-0-0-0-0-0-0-0-0-0-0-0-0-0-0-|-------------|
G|-9--9--9-9--9--9-9--9-9-9-9-|-9-9-9-9-9-9-9-9-9-9-9-9-9-9-9-|-------------|
D|-9--9--9-9--9--9-9--9-9-9-9-|-9-9-9-9-9-9-9-9-9-9-9-9-9-9-9-|-------------|
A|-7--7--7-7--7--7-7--7-7-7-7-|-7-7-7-7-7-7-7-7-7-7-7-7-7-7-7-|-------------|
E|-7--7--7-7--7--7-7--7-7-7-7-|-8-8-8-8-8-8-8-8-8-8-8-8-8-8-8-|-------------|


 G1
  Verse (5x repeat)1:27
e|---------------3--3--3-3-3-3-|-1---(1)---------3--3-3-3-3-|---------------|
B|-10-10(10)(1)--3--3--3-3-3-3-|-1---(1)-(1)--3--3--3-3-3-3-|---------------|
G|-10-10(10)(0)--0--0--0-0-0-0-|-2-2-(2)-(0)--0--0--0-0-0-0-|---------------|
D|-10-10(10)(2)--0--0--0-0-0-0-|-3-3-(3)-(2)--0--0--0-0-0-0-|---------------|
A|-8--8-(8)-(3)--2-----2-2-2-2-|-3-3-(3)-(3)--2-----2-2-2-2-|---------------|
E|----------(3)--3-----3-3-3-3-|---1-----(3)--3-----3-3-3-3-|---------------|

 G2+G3

e|--------------3---3--3-3-3-3-|--------------3---3--3-3-3-3-|--------------|
B|-10-10-10-(9)-3---3--3-3-3-3-|-10-10-10-(9)-3---3--3-3-3-3-|--------------|
G|-10-10-10-(9)-4---4--4-4-4-4-|-10-10-10-(9)-4---4--4-4-4-4-|--------------|
D|-10-10-10-(9)-5-x----5-5-5-5-|-10-10-10-(9)-5-x----5-5-5-5-|--------------|
A|-8--8--8--(7)-5-x----5-5-5-5-|-8--8--8--(7)-5-x----5-5-5-5-|--------------|
E|--------------3-x----3-3-3-3-|--------------3-x----3-3-3-3-|--------------|
		I'll take the firmest path. Oh, and I must refuse your test.

 G1

e|--------------3--3--3-3-3-3-|-1---(1)---------3--3-3-3-3-|-----------3-3--|
B|-1-1-(1)-(1)--3--3--3-3-3-3-|-1---(1)-(1)--3--3--3-3-3-3-|-1-1-1--1--3-3--|
G|-2-2-(2)-(0)--0--0--0-0-0-0-|-2-2-(2)-(0)--0--0--0-0-0-0-|-2-2-2--0--0-0--|
D|-3-3-(3)-(2)--0--0--0-0-0-0-|-3-3-(3)-(2)--0--0--0-0-0-0-|-3-3-3--2--0-0--|
A|-3-3-(3)-(3)--2-----2-2-2-2-|-3-3-(3)-(3)--2-----2-2-2-2-|-3-3-3--3--2-2--|
E|---------(3)--3-----3-3-3-3-|---1-----(3)--3-----3-3-3-3-|--------3--3-3--|

 G2+G3

e|------------------3--3-3-3-3-|--------------3---3--3-3-3-3-|--------------3---3--|
B|-10-10-10-(9)-----3--3-3-3-3-|-10-10-10-(9)-3---3--3-3-3-3-|-10-10-10-(9)-3---3--|
G|-10-10-10-(9)-----4--4-4-4-4-|-10-10-10-(9)-4---4--4-4-4-4-|-10-10-10-(9)-4---4--|
D|-10-10-10-(9)-5-x----5-5-5-5-|-10-10-10-(9)-5-x----5-5-5-5-|-10-10-10-(9)--(5)---|
A|-8--8--8--(7)-5-x----5-5-5-5-|-8--8--8--(7)-5-x----5-5-5-5-|-8--8--8--(7)--(5)---|
E|--------------3-x----3-3-3-3-|--------------3-x----3-3-3-3-|---------------(3)---|
it wouldn't fit- copy and paste into a .txt before printing)
 Push me and I will resist.     This behavior's not unique.    I don't wanna

 G1
  Chorus (8x repeat)1:43
e|-3--3-3-------------3-3-----|-3--3-3-------------3-3-----|----------------|
B|-3--3-3-3--3(3)-3---3---3---|-3--3-3-3--3(3)-3---3---3---|----------------|
G|-0--0-0-2--2(2)-2---0-----0-|-0--0-0-2--2(2)-2---0-----0-|----------------|
D|-2--2---0--0(0)-0---0-------|-2--2---0--0(0)-0---0-------|----------------|
A|-3--3---2--2(2)-0---2-------|-3--3---2--2(2)-0---2-------|----------------|
E|----------------2---3-------|----------------2---3-------|----------------|

 G2+G3

e|--------------------3-3-----|--------------------3-3-----|----------------|
B|-5--5-3-3--3(3)-(2)-3---3---|-5--5-3-3--3(3)-(2)-3---3---|----------------|
G|-5--5-4-4--4(4)-(2)-0-----0-|-5--5-4-4--4(4)-(2)-0-----0-|----------------|
D|-5--5-4-4--4(4)-(2)-0-------|-5--5-4-4--4(4)-(2)-0-------|----------------|
A|-3--3-2-2--2(2)-(0)-2-------|-3--3-2-2--2(2)-(0)-2-------|----------------|
E|--------------------3-------|--------------------3-------|----------------|
  Hear from those who know.    They can buy, but can't put on, my clothes.

 G1

e|-3--3-3-------------3-3-----|-3--3-3-------------3-3-----|----------------|
B|-3--3-3-3--3(3)-3---3---3---|-3--3-3-3--3(3)-3---3---3---|----------------|
G|-0--0-0-2--2(2)-2---0-----0-|-0--0-0-2--2(2)-2---0-----0-|----------------|
D|-2--2---0--0(0)-0---0-------|-2--2---0--0(0)-0---0-------|----------------|
A|-3--3---2--2(2)-0---2-------|-3--3---2--2(2)-0---2-------|----------------|
E|----------------2---3-------|----------------2---3-------|----------------|

 G2+G3

e|--------------------3-3-----|--------------------3-3-----|----------------|
B|-5--5-3-3--3(3)-(2)-3---3---|-5--5-3-3--3(3)-(2)-3---3---|----------------|
G|-5--5-4-4--4(4)-(2)-0-----0-|-5--5-4-4--4(4)-(2)-0-----0-|----------------|
D|-5--5-4-4--4(4)-(2)-0-------|-5--5-4-4--4(4)-(2)-0-------|----------------|
A|-3--3-2-2--2(2)-(0)-2-------|-3--3-2-2--2(2)-(0)-2-------|----------------|
E|--------------------3-------|--------------------3-------|----------------|
  I don't wanna limp for them to walk. Never would've known of me before.

 G1

e|-3--3-3-------------3-3-----|-3--3-3-------------3-3-----|----------------|
B|-3--3-3-3--3(3)-3---3---3---|-3--3-3-3--3(3)-3---3---3---|----------------|
G|-0--0-0-2--2(2)-2---0-----0-|-0--0-0-2--2(2)-2---0-----0-|----------------|
D|-2--2---0--0(0)-0---0-------|-2--2---0--0(0)-0---0-------|----------------|
A|-3--3---2--2(2)-0---2-------|-3--3---2--2(2)-0---2-------|----------------|
E|----------------2---3-------|----------------2---3-------|----------------|

 G2+G3

e|--------------------3-3-----|--------------------3-3-----|----------------|
B|-5--5-3-3--3(3)-(2)-3---3---|-5--5-3-3--3(3)-(2)-3---3---|----------------|
G|-5--5-4-4--4(4)-(2)-0-----0-|-5--5-4-4--4(4)-(2)-0-----0-|----------------|
D|-5--5-4-4--4(4)-(2)-0-------|-5--5-4-4--4(4)-(2)-0-------|----------------|
A|-3--3-2-2--2(2)-(0)-2-------|-3--3-2-2--2(2)-(0)-2-------|----------------|
E|--------------------3-------|--------------------3-------|----------------|
 I don't wanna be held in your debt. I'll pay it off in blood, let I be wed.

 G1

e|-3--3-3-------------3-3-----|-3--3-3-------------3-3-----|----------------|
B|-3--3-3-3--3(3)-3---3---3---|-3--3-3-3--3(3)-3---3---3---|----------------|
G|-0--0-0-2--2(2)-2---0-----0-|-0--0-0-2--2(2)-2---0-----0-|----------------|
D|-2--2---0--0(0)-0---0-------|-2--2---0--0(0)-0---0-------|----------------|
A|-3--3---2--2(2)-0---2-------|-3--3---2--2(2)-0---2-------|----------------|
E|----------------2---3-------|----------------2---3-------|----------------|

 G2+G3

e|-------------------3--3-----|--------------------3--3-----|---------------|
B|-5--5-3-3--3(3)-2--3----3---|-5--5-3-3--3(3)-(2)-3----3---|---------------|
G|-5--5-4-4--4(4)-2--0------0-|-5--5-4-4--4(4)-(2)-0------0-|---------------|
D|-5--5-4-4--4(4)-2--0--------|-5--5-4-4--4(4)-(2)-0--------|---------------|
A|-3--3-2-2--2(2)-0--2--------|-3--3-2-2--2(2)-(0)-2--------|---------------|
E|-------------------3--------|--------------------3--------|---------------|
  I'm already cut up and half-dead. We'll lie alone like we be-gan...

 G3
 Interlude(16x repeat)2:10 (G1 randomly strums G chord)
e|---2-3-|-2-3--3--3-3-3-2-|-3--3-3-3-2-|-3--3-3-3-2-|-3--3-3-3-2-|---------|
B|-------|-3-3--3--3-3-3-3-|-3--3-3-3-3-|-3--3-3-3-3-|-3--3-3-3-3-|---------|
G|-0-----|-2-0--0--0-0-0-0-|-0--0-0-0-0-|-0--0-0-0-0-|-0--0-0-0-0-|---------|
D|-------|-0-0--0--0-0-0-0-|-0--0-0-0-0-|-0--0-0-0-0-|-0--0-0-0-0-|---------|
A|-------|-0-2--2--2-2-2-0-|-2--2-2-2---|-2--2-2-2---|-2--2-2-2---|---------|
E|-------|---3*-3--3-3-3---|-3--3-3-3---|-3--3-3-3---|-3--3-3-3---|---------|

	   *hold with thumb
 G2
		G		C			G
e|--------3--3--3-3--3-3-3-|-0--0--0-0--0--0-0-0-0-0-|-3--3---3-0-3-|-------|
B|--------3--3--3-3--3-3-3-|-1--1--1-1--1--1-1-1-1-1-|-3--3---3-0-3-|-------|
G|--------4--4--4-4--4-4-4-|-0--0--0-0--0--0-0-0-0-0-|-4--4---4-0-4-|-------|
D|--------5--5--5-5--5-5-5-|-2--2--2-2--2--2-2-2-2-2-|-5--5---5-0-5-|-------|
A|--------5--5--5-5--5-5-5-|-3--3--3-3--3--3-3-3-3-3-|-5--5---5-0-5-|-------|
E|--------3--3--3-3--3-3-3-|-3--3--3-3--3--3-3-3-3-3-|-3--3---3-3-3-|-------|


 G3

e|-3--3-3-3-2-|-3--3-3-3-2-|-2--3--3-3-3-2-|-3--3-3-3-2-|-------------------|
B|-3--3-3-3-3-|-3--3-3-3-3-|-3--3--3-3-3-3-|-3--3-3-3-3-|-------------------|
G|-0--0-0-0-0-|-0--0-0-0-0-|-0--0--0-0-0-0-|-0--0-0-0-0-|-------------------|
D|-0--0-0-0-0-|-0--0-0-0-0-|-0--0--0-0-0-0-|-0--0-0-0-0-|-------------------|
A|-2--2-2-2---|-2--2-2-2---|----2--2-2-2---|-2--2-2-2---|-------------------|
E|-3--3-3-3---|-3--3-3-3---|----3--3-3-3---|-3--3-3-3---|-------------------|
					    Every-thing has chains...

 G2

e|-3-3-3-3-3-|-0--0---0-0-0-0-0---0-0-0-0-|-----------------|---------------|
B|-3-3-3-3-3-|-1--1---1-1-1-1-1---1-1-1-1-|-----------------|---------------|
G|-0-0-0-0-0-|-0--0---0-0-0-0-0---0-0-0-0-|-----------------|---------------|
D|-0-0-0-0-0-|-2--2---2-2-0-2-2---2-2-2-2-|-5--5--5-0-5-5-5-|---------------|
A|-2-2-2-2-2-|-3--3---3-3-0-3-3---3-3-3-3-|-5--5--5-0-5-5-5-|---------------|
E|-3-3-3-3-3-|-3--3---3-3-3-3-3---3-3-3-3-|-3--3--3-3-3-3-3-|---------------|


 G3

e|-3--3-3-3-2-|-3--3-3-3-2-|-3--3-3-3-2-|-3--3-3-3-2-|----------------------|
B|-3--3-3-3-3-|-3--3-3-3-3-|-3--3-3-3-3-|-3--3-3-3-3-|----------------------|
G|-0--0-0-0-0-|-0--0-0-0-0-|-0--0-0-0-0-|-0--0-0-0-0-|----------------------|
D|-0--0-0-0-0-|-0--0-0-0-0-|-0--0-0-0-0-|-0--0-0-0-0-|----------------------|
A|-2--2-2-2---|-2--2-2-2---|-2--2-2-2---|-2--2-2-2---|----------------------|
E|-3--3-3-3---|-3--3-3-3---|-3--3-3-3---|-3--3-3-3---|----------------------|
  Absolutely nothing's changed. So take my hand.

 G2

e|--------3--3--3-3--3-3-3-|-0--0--0-0--0--0-0-0-0-0-|-3--3---3-0-3-|-------|
B|--------3--3--3-3--3-3-3-|-1--1--1-1--1--1-1-1-1-1-|-3--3---3-0-3-|-------|
G|--------0--0--0-0--0-0-0-|-0--0--0-0--0--0-0-0-0-0-|-0--0---0-0-0-|-------|
D|--------0--0--0-0--0-0-0-|-2--2--2-2--2--2-2-2-2-2-|-0--0---0-0-0-|-------|
A|--------2--2--2-2--2-2-2-|-3--3--3-3--3--3-3-3-3-3-|-2--2---2-0-2-|-------|
E|--------3--3--3-3--3-3-3-|-3--3--3-3--3--3-3-3-3-3-|-3--3---3-3-3-|-------|


 G3

e|-3--3-3-3-2-|-2--3--3-3-3-2-|-3--3-3-3-2-|-3--3-3-3-2-|-------------------|
B|-3--3-3-3-3-|-3--3--3-3-3-3-|-3--3-3-3-3-|-3--3-3-3-3-|-------------------|
G|-0--0-0-0-0-|-0--0--0-0-0-0-|-0--0-0-0-0-|-0--0-0-0-0-|-------------------|
D|-0--0-0-0-0-|-0--0--0-0-0-0-|-0--0-0-0-0-|-0--0-0-0-0-|-------------------|
A|-2--2-2-2---|----2--2-2-2---|-2--2-2-2---|-2--2-2-2---|-------------------|
E|-3--3-3-3---|----3--3-3-3---|-3--3-3-3---|-3--3-3-3---|-------------------|
  Draw my pic-ture.		Spill my tinc-ture...

 G2

e|-3-3-3-3-3-|-0--0---0-0-0-0-0---0-0-0-0-|-----------------|---------------|
B|-3-3-3-3-3-|-1--1---1-1-1-1-1---1-1-1-1-|-----------------|---------------|
G|-0-0-0-0-0-|-0--0---0-0-0-0-0---0-0-0-0-|-5--5--5-5-5-5-5-|---------------|
D|-0-0-0-0-0-|-2--2---2-2-0-2-2---2-2-2-2-|-5--5--5-5-5-5-5-|---------------|
A|-2-2-2-2-2-|-3--3---3-3-0-3-3---3-3-3-3-|-3--3--3-3-3-3-3-|---------------|
E|-3-3-3-3-3-|-3--3---3-3-3-3-3---3-3-3-3-|-3--3--3-3-3-3-3-|---------------|


 G1
  Chorus (6x repeat)2:40
e|-3--3-3-------------3-3-----|-3--3-3-------------3-3-----|----------------|
B|-3--3-3-3--3(3)-3---3---3---|-3--3-3-3--3(3)-3---3---3---|----------------|
G|-0--0-0-2--2(2)-2---0-----0-|-0--0-0-2--2(2)-2---0-----0-|----------------|
D|-2--2---0--0(0)-0---0-------|-2--2---0--0(0)-0---0-------|----------------|
A|-3--3---2--2(2)-0---2-------|-3--3---2--2(2)-0---2-------|----------------|
E|----------------2---3-------|----------------2---3-------|----------------|

 G2+G3

e|--------------------3-3-----|--------------------3-3-----|----------------|
B|-5--5-3-3--3(3)-(2)-3---3---|-5--5-3-3--3(3)-(2)-3---3---|----------------|
G|-5--5-4-4--4(4)-(2)-0-----0-|-5--5-4-4--4(4)-(2)-0-----0-|----------------|
D|-5--5-4-4--4(4)-(2)-0-------|-5--5-4-4--4(4)-(2)-0-------|----------------|
A|-3--3-2-2--2(2)-(0)-2-------|-3--3-2-2--2(2)-(0)-2-------|----------------|
E|--------------------3-------|--------------------3-------|----------------|
  I don't wanna take what you can give. I'd rather starve than eat your breast.

 G1

e|-3--3-3-------------3-3-----|-3--3-3-------------3-3-----|----------------|
B|-3--3-3-3--3(3)-3---3---3---|-3--3-3-3--3(3)-3---3---3---|----------------|
G|-0--0-0-2--2(2)-2---0-----0-|-0--0-0-2--2(2)-2---0-----0-|----------------|
D|-2--2---0--0(0)-0---0-------|-2--2---0--0(0)-0---0-------|----------------|
A|-3--3---2--2(2)-0---2-------|-3--3---2--2(2)-0---2-------|----------------|
E|----------------2---3-------|----------------2---3-------|----------------|

 G2+G3

e|--------------------3-3-----|------2-2--2-2--0--3--3-----|----------------|
B|-5--5-3-3--3(3)-(2)-3---3---|------3-3--3-3--2--3----3---|----------------|
G|-5--5-4-4--4(4)-(2)-0-----0-|-5--5-4-4--4-4--2--0------0-|----------------|
D|-5--5-4-4--4(4)-(2)-0-------|-5--5-4-4--4-4--2--0--------|----------------|
A|-3--3-2-2--2(2)-(0)-2-------|-3--3-2-2--2-2--0--2--------|----------------|
E|--------------------3-------|-------------------3--------|----------------|
All the things that others want for me. Can't buy what I want because it's free.

 G1

e|-3--3-3-------------3-3-----|-3--3-3-----------|--------------------------|
B|-3--3-3-3--3(3)-3---3---3---|-3--3-3-3--3(3)-3-|--------------------------|
G|-0--0-0-2--2(2)-2---0-----0-|-0--0-0-2--2(2)-2-|--------------------------|
D|-2--2---0--0(0)-0---0-------|-2--2---0--0(0)-0-|--------------------------|
A|-3--3---2--2(2)-0---2-------|-3--3---2--2(2)-0-|--------------------------|
E|----------------2---3-------|----------------2-|--------------------------|

 G2+G3

e|------2-2--2-2--0--3--3-----|------2-2--2-2--0-|-----|--------------------|
B|------3-3--3-3--2--3----3---|------3-3--3-3--2-|-(x)-|--------------------|
G|-5--5-4-4--4-4--2--0------0-|-5--5-4-4--4-4--2-|-(x)-|--------------------|
D|-5--5-4-4--4-4--2--0--------|-5--5-4-4--4-4--2-|-(x)-|--------------------|
A|-3--3-2-2--2-2--0--2--------|-3--3-2-2--2-2--0-|-(x)-|--------------------|
E|-------------------3--------|------------------|-----|--------------------|
Can't buy what I want because it's free. Can't be what they want cause I'm.

 G1
 Verse (4x repeat)3:00
e|---------------3--3--3-3-3-3-|-1---(1)---------3--3-3-3-3-|---------------|
B|-10-10(10)(1)--3--3--3-3-3-3-|-1---(1)-(1)--3--3--3-3-3-3-|---------------|
G|-10-10(10)(0)--0--0--0-0-0-0-|-2-2-(2)-(0)--0--0--0-0-0-0-|---------------|
D|-10-10(10)(2)--0--0--0-0-0-0-|-3-3-(3)-(2)--0--0--0-0-0-0-|---------------|
A|-8--8-(8)-(3)--2-----2-2-2-2-|-3-3-(3)-(3)--2-----2-2-2-2-|---------------|
E|----------(3)--3-----3-3-3-3-|---1-----(3)--3-----3-3-3-3-|---------------|

 G2+G3

e|--------------3---3--3-3-3-3-|--------------3---3--3-3-3-3-|--------------|
B|-10-10-10-(9)-3---3--3-3-3-3-|-10-10-10-(9)-3---3--3-3-3-3-|--------------|
G|-10-10-10-(9)-4---4--4-4-4-4-|-10-10-10-(9)-4---4--4-4-4-4-|--------------|
D|-10-10-10-(9)-5-x----5-5-5-5-|-10-10-10-(9)-5-x----5-5-5-5-|--------------|
A|-8--8--8--(7)-5-x----5-5-5-5-|-8--8--8--(7)-5-x----5-5-5-5-|--------------|
E|--------------3-x----3-3-3-3-|--------------3-x----3-3-3-3-|--------------|
  It's s'ppose to be just fun. Live and die; let it be done.

 G1

e|--------------3--3--3-3-3-3-|-1---(1)---------3--3-3-3-3-|----------------|
B|-1-1-(1)-(1)--3--3--3-3-3-3-|-1---(1)-(1)--3--3--3-3-3-3-|-1-1-1----------|
G|-2-2-(2)-(0)--0--0--0-0-0-0-|-2-2-(2)-(0)--0--0--0-0-0-0-|-2-2-2----------|
D|-3-3-(3)-(2)--0--0--0-0-0-0-|-3-3-(3)-(2)--0--0--0-0-0-0-|-3-3-3----------|
A|-3-3-(3)-(3)--2-----2-2-2-2-|-3-3-(3)-(3)--2-----2-2-2-2-|-3-3-3----------|
E|---------(3)--3-----3-3-3-3-|---1-----(3)--3-----3-3-3-3-|----------------|

 G2+G3
					   G2
e|--------------3---3--3-3-3-3-|--------------3---3--3-3-3-3-|--------------|
B|-10-10-10-(9)-3---3--3-3-3-3-|-10-10-10-(9)-3---3--3-3-3-3-|-10-10-10--9*-|
G|-10-10-10-(9)-4---4--4-4-4-4-|-10-10-10-(9)-4---4--4-4-4-4-|-10-10-10--9*-|
D|-10-10-10-(9)-5-x----5-5-5-5-|-10-10-10-(9)-5-x----5-5-5-5-|-10-10-10--9*-|
A|-8--8--8--(7)-5-x----5-5-5-5-|-8--8--8--(7)-5-x----5-5-5-5-|-8--8--8---7*-|
E|--------------3-x----3-3-3-3-|--------------3-x----3-3-3-3-|--------------|
  We'll figure I'll be damned. All alone like I be-gan...
								*let notes ring
 G3
Freetime 3:16 	More freetime 3:24
e|----------||--------------------------|-----------------------------------|
B|----------||-------------------9------|-------------------------8---------|
G|----------||----------9--------9------|-----------------------9-----------|
D|----------||-9--------9---------------|---------------9-------9--9b*vvvv--|
A|----------||-7------------------------|---------------7-------0-----------|
E|----------||--------------------------|---------------0-------0-----------|

							*1/2 bend and release
 G3
	Intro repeats here in most versions... Various slides.
e|----------------------|------------------|-----------------|--------------|
B|----------------------|------------------|---\-------------|--------------|
G|-9--------------------|------------------|-----\--/--------|--------------|
D|-9--------------------|------------------|-------/---------|--------------|
A|-7--------------------|-0-0-0-0-0-0-0-0--|-----------------|--------------|
E|------0*0-0-0-0-0-0-0-|------------------|-----------------|--------------|

	*Filler for bass
 G3
 Solo(not exact) begins 3:43
e|-------------------------|-----------------------|------------------------|
B|-17b*vv17p15-------------|-17vv-17p15------------|-17vv-17p15-------------|
G|-------------12h14p12h16-|-----------12h14p12h16-|-----------16--------14-|
D|-------------------------|-----------------------|-------------17-19p17---|
A|-------------------------|-----------------------|------------------------|
E|-------------------------|-----------------------|------------------------|

	*1/4 bend
 G2

e|----------------------------------|------------------------------------|--|
B|-8--8--8--8-8-(8)--8-8--8-8-8-8-8-|-2--2--2--(2)-2-2-5--(5)-5--5-5-5-5-|--|
G|-9--9--9--9-9-(9)--9-9--9-9-9-9-9-|-2--2--2--(2)-2-2-5--(5)-5--5-5-5-5-|--|
D|-9--9--9--9-9-(9)--9-9--9-9-9-9-9-|-2--2--2--(2)-2-2-5--(5)-5--5-5-5-5-|--|
A|-7--7--7--7-7-(7)--7-7--7-7-7-7-7-|-0--0--0--(0)-0-0-3--(3)-3--3-3-3-3-|--|
E|----------------------------------|------------------------------------|--|


 G3

e|-----------------------|-------------------------------------------|------|
B|-----------------------|-------------------------------------------|------|
G|-12h14-14b16-14\12-14v-|-12h14-pb16r14p12--------------------------|------|
D|-----------------------|------------------14vv------12v----12b14vv-|------|
A|-----------------------|--------------------------14----14---------|------|
E|-----------------------|-----------------------14------------------|------|


 G2

e|----------------------------------|------------------------------------|--|
B|-8--8--8--8-8-(8)--8-8--8-8-8-8-8-|-2--2--2--(2)-2-2-5--(5)-5--5-5-5-5-|--|
G|-9--9--9--9-9-(9)--9-9--9-9-9-9-9-|-2--2--2--(2)-2-2-5--(5)-5--5-5-5-5-|--|
D|-9--9--9--9-9-(9)--9-9--9-9-9-9-9-|-2--2--2--(2)-2-2-5--(5)-5--5-5-5-5-|--|
A|-7--7--7--7-7-(7)--7-7--7-7-7-7-7-|-0--0--0--(0)-0-0-3--(3)-3--3-3-3-3-|--|
E|----------------------------------|------------------------------------|--|


 G3
					       3:56
e|---------------------------------------|-------------------------|--------|
B|-12-12-12v---12----12----12------------|-------------------------|--------|
G|-12-12-12v---12----14b15-12-14b16-14vv-|-14-12-14b16-14-12-14-16-|--------|
D|----------14v---14---------------------|-------------------------|--------|
A|---------------------------------------|-------------------------|--------|
E|---------------------------------------|-------------------------|--------|


 G2

e|----------------------------------|------------------------------------|--|
B|-8--8--8--8-8-(8)--8-8--8-8-8-8-8-|-2--2--2--(2)-2-2-5--(5)-5--5-5-5-5-|--|
G|-9--9--9--9-9-(9)--9-9--9-9-9-9-9-|-2--2--2--(2)-2-2-5--(5)-5--5-5-5-5-|--|
D|-9--9--9--9-9-(9)--9-9--9-9-9-9-9-|-2--2--2--(2)-2-2-5--(5)-5--5-5-5-5-|--|
A|-7--7--7--7-7-(7)--7-7--7-7-7-7-7-|-0--0--0--(0)-0-0-3--(3)-3--3-3-3-3-|--|
E|----------------------------------|------------------------------------|--|


 G3
				4:01
e|-------------------------|-----------------------------------------------|
B|-------------------------|--------------------------------------------15-|
G|-14-12-14-16-14-12-16-12-|--------------------------14-12h14--16p14h16---|
D|-------------------------|-14------------12--14p12----------14-----------|
A|-------------------------|------12--12h14--14-----14---------------------|
E|-------------------------|----15--15-------------------------------------|


 G2

e|----------------------------------|------------------------------------|--|
B|-8--8--8--8-8-(8)--8-8--8-8-8-8-8-|-2--2--2--(2)-2-2-5--(5)-5--5-5-5-5-|--|
G|-9--9--9--9-9-(9)--9-9--9-9-9-9-9-|-2--2--2--(2)-2-2-5--(5)-5--5-5-5-5-|--|
D|-9--9--9--9-9-(9)--9-9--9-9-9-9-9-|-2--2--2--(2)-2-2-5--(5)-5--5-5-5-5-|--|
A|-7--7--7--7-7-(7)--7-7--7-7-7-7-7-|-0--0--0--(0)-0-0-3--(3)-3--3-3-3-3-|--|
E|----------------------------------|------------------------------------|--|


 G3

e|--------------------------|-17vvvvvvv-15fbr-----------------|-------------|
B|----------17vvvv-17p15----|----------------17-15v-17-15-----|-------------|
G|-16p14h16--------------16-|-----------------------------16\-|-------------|
D|--------------------------|---------------------------------|-------------|
A|--------------------------|---------------------------------|-------------|
E|--------------------------|---------------------------------|-------------|


 G2

e|----------------------------------|------------------------------------|--|
B|-8--8--8--8-8-(8)--8-8--8-8-8-8-8-|-2--2--2--(2)-2-2-5--(5)-5--5-5-5-5-|--|
G|-9--9--9--9-9-(9)--9-9--9-9-9-9-9-|-2--2--2--(2)-2-2-5--(5)-5--5-5-5-5-|--|
D|-9--9--9--9-9-(9)--9-9--9-9-9-9-9-|-2--2--2--(2)-2-2-5--(5)-5--5-5-5-5-|--|
A|-7--7--7--7-7-(7)--7-7--7-7-7-7-7-|-0--0--0--(0)-0-0-3--(3)-3--3-3-3-3-|--|
E|----------------------------------|------------------------------------|--|


 G3
  4:10
e|--------------------------|-0---0-0---0---0---0-0---0-----0---0-|---------|
B|------------------------0-|---5---3-3-5-5---5-5-3-3-3h5-5-5-5---|---------|
G|-0h2-2b4-2b4r2p0---0h2/4--|-------------------------------------|---------|
D|-----------------2--------|-------------------------------------|---------|
A|--------------------------|-------------------------------------|---------|
E|--------------------------|-------------------------------------|---------|


 G2

e|----------------------------------|------------------------------------|--|
B|-8--8--8--8-8-(8)--8-8--8-8-8-8-8-|-2--2--2--(2)-2-2-5--(5)-5--5-5-5-5-|--|
G|-9--9--9--9-9-(9)--9-9--9-9-9-9-9-|-2--2--2--(2)-2-2-5--(5)-5--5-5-5-5-|--|
D|-9--9--9--9-9-(9)--9-9--9-9-9-9-9-|-2--2--2--(2)-2-2-5--(5)-5--5-5-5-5-|--|
A|-7--7--7--7-7-(7)--7-7--7-7-7-7-7-|-0--0--0--(0)-0-0-3--(3)-3--3-3-3-3-|--|
E|----------------------------------|------------------------------------|--|


 G3
							4:24 (repeat 8x)
e|-0---0---0-0-0-0---0-----0---0-|--------------------------12------12------|
B|-3-3-5-5---5---7-7-7/8-8-8-8-8-|-8-8-8h10--10-10-10-10h12---12-12---12-12-|
G|-----------------------9---9---|-9---9----9---9--9--9---------------------|
D|-------------------------------|------------------------------------------|
A|-------------------------------|------------------------------------------|
E|-------------------------------|------------------------------------------|


 G2

e|----------------------------------|------------------------------------|--|
B|-8--8--8--8-8-(8)--8-8--8-8-8-8-8-|-2--2--2--(2)-2-2-5--(5)-5--5-5-5-5-|--|
G|-9--9--9--9-9-(9)--9-9--9-9-9-9-9-|-2--2--2--(2)-2-2-5--(5)-5--5-5-5-5-|--|
D|-9--9--9--9-9-(9)--9-9--9-9-9-9-9-|-2--2--2--(2)-2-2-5--(5)-5--5-5-5-5-|--|
A|-7--7--7--7-7-(7)--7-7--7-7-7-7-7-|-0--0--0--(0)-0-0-3--(3)-3--3-3-3-3-|--|
E|----------------------------------|------------------------------------|--|


 G3
						4:30
e|-12------12------12------12------12------12---------12-----12---|---------|
B|---12-12---12-12---12-12---12-12---12-12---12-12--12--12-16--15-|---------|
G|----------------------------------------------------------------|---------|
D|----------------------------------------------------------------|---------|
A|----------------------------------------------------------------|---------|
E|----------------------------------------------------------------|---------|


 G2

e|----------------------------------|------------------------------------|--|
B|-8--8--8--8-8-(8)--8-8--8-8-8-8-8-|-2--2--2--(2)-2-2-5--(5)-5--5-5-5-5-|--|
G|-9--9--9--9-9-(9)--9-9--9-9-9-9-9-|-2--2--2--(2)-2-2-5--(5)-5--5-5-5-5-|--|
D|-9--9--9--9-9-(9)--9-9--9-9-9-9-9-|-2--2--2--(2)-2-2-5--(5)-5--5-5-5-5-|--|
A|-7--7--7--7-7-(7)--7-7--7-7-7-7-7-|-0--0--0--(0)-0-0-3--(3)-3--3-3-3-3-|--|
E|----------------------------------|------------------------------------|--|


 G3

e|-12---12-----12--12---12-----12---|------0-------------0---|--------------|
B|----12--12-15--12---12--12-15--12-|---12-----12-----12-----|--------------|
G|----------------------------------|-9------9----9-9------9-|--------------|
D|----------------------------------|------------------------|--------------|
A|----------------------------------|------------------------|--------------|
E|----------------------------------|------------------------|--------------|


 G2
  Outro 4:38
e|----------------------------------|------------------------------------|--|
B|-8--8--8--8-8-(8)--8-8--8-8-8-8-8-|-2--2--2--(2)-2-2-5--(5)-5--5--5--5-|--|
G|-9--9--9--9-9-(9)--9-9--9-9-9-9-9-|-2--2--2--(2)-2-2-5--(5)-5--5--5--5-|--|
D|-9--9--9--9-9-(9)--9-9--9-9-9-9-9-|-2--2--2--(2)-2-2-5--(5)-5--5--5--5-|--|
A|-7--7--7--7-7-(7)--7-7--7-7-7-7-7-|-0--0--0--(0)-0-0-3--(3)-3--3--3--3-|--|
E|----------------------------------|------------------------------------|--|


 G3

e|----------------------------------|------------------------------------|--|
B|-0--------------------------------|-2--2--2-(2)2--0--5--5--5-5-5--0----|--|
G|-1------------------------2b4r2p0-|-2--2--2-(2)2--0--5--5--5-5-5--0----|--|
D|-2--------------------------------|-2--2--2-(2)2--0--5--5--5-5-5--0----|--|
A|-2--------------------------------|-0--0--0-(0)0-----3--3--3-3-3--0----|--|
E|----------------------------------|------------------------------------|--|


 G2

e|----------------------------------|------------------------------------|---|
B|-8-8--------8-8--------8-8--------|-8-8--------8-8--------8-8----------|---|
G|-9-9--------9-9--------9-9--------|-9-9--------9-9--------9-9----------|---|
D|-9-9--------9-9--------9-9--------|-9-9--------9-9--------9-9----------|---|
A|-7-7--------7-7--------7-7--------|-7-7--------7-7--------7-7----------|---|
E|----------------------------------|------------------------------------|---|


 G3

e|----------------------------------|------------------------------------|--|
B|----------------------------------|-------------------------------8-x--|--|
G|-1vvvv----------------------------|-------------------------------9-x--|--|
D|-2vvvv----------------------------|-------------------------------9-x--|--|
A|-2vvvv----------------------------|-------------------------------7-x--|--|
E|----------------------------------|------------------------------------|--|

   let ring until end-->
 G1

e|----------------------------------|------------------------------------|--|
B|----------------------------------|------------------------------------|--|
G|-1--------------------------6-6---|---7-7v--9pb12r9-7h9vvv-------------|--|
D|-2-----------0h2vv--------5h7-7/9-|-9----------------------------------|--|
A|-2--------------------5h7---------|------------------------------------|--|
E|----------------------------------|------------------------------------|--|
								Song ends: 4:58

Tab notations:

 h = hammer-on
 p = pull-off
 / = slide up
 \ = slide down
 v = vibrate
 b = bend to indicated frett
pb = pre-bend (bend before striking)
 r = release bend
 x = mute (tap string)
( )= mute string after striking
 ^ = harmonic (not appearing in song)
 * = as noted

 **tacets without notes should be disregarded unless designated free-time

 Verse Procession    Chorus Procession  Bridge Procession  Interlude
 Name  e a d g b e   Name  e a d g b e  Name  e a d g b e  Name  e a b g b e
 F5    x 8 1010x x   C5    x 3 5 5 x x  Em    0 2 2 4 5 3  G     3 2 0 0 3 3
 E5    x 7 9 9 x x   Bm    x 2 4 4 3 2       (7 7 9 9 X X) D	 x x x 0 3 2
(c)   (3 3 2 0 1 0)  A     x 0 2 2 2 0  A     x 0 2 2 2 0  C     3 3 2 0 1 0
 G     3 5 5 4 3 3   G     3 5 0 0 3 3       (0 0 9 9 X X) G     3 5 5 4 3 3
      					C9    8 7 9 9 x x  C5    x 3 5 5 x x
				        Am   (x 3 2 2 1 0)

Big Ol' speech at the end ... (possibly not printer friendly? consider
deleting it if you wanna print this stuff out.)

I like tabs in linear format which makes the peice of music easier to read
and more fun to work with. I know you pros are gonna beat the dog outta this
tab, but I think this is a five star song and it deserves better so I won't
quit posting till' someone makes a five star tab to replace this crap.
 Graham Haworth did most of the work already. Thanks man. I originally used
open F, C and G chords on this tab by its sound but when I compared it to
other live versions it didn't match up. So I went online and watched four
videos of the live version of the song paying attention to their hand
movements. Low and behold they never brought their hands higher up on the
frettboard than the fifth frett during the Chorus and verse except for the
very first chord which is strummed 3 times and only on the first time. I
went with the original anyways just to make you guys happy. (On a separate note, 
is a kind of alcoholic drink or elixir. So now you know it wasn't a mumble mistake.)
	I didn't include note signatures because it's really annoying to be
reading a tab with a zillion H,Q,E,S, and T's on it. (albeit somewhat more
proffessional? awe who cares!) I hope the muting will make up for it. I did,
however, try to space the fretting to give the effect of a time signature
and posted different times for each part of the song to help the reader
stay on que.  The solo might be wrong, but that's partly why I'm posting it!
It should end up 1:16 long, though. Someone please give this a shot!
comments
print report bad tab
5 comments total. Showing first comments.
0 reply
jimbopo wrote on February 7 2008, 02:00 pm

please rate

0 reply
Callo wrote on April 21 2008, 06:51 am

5 stars, i think your a great tabber

0 reply
jman272 wrote on April 24 2009, 03:09 pm

Great Tab....but your take on the lyrics are comical
Otherwise Good Job
5 Stars

I want to post or [tab]
guest
You may want to rate the tab now too:
select rating
Please do not post tabs as comments. Select "correction" instead!