Oops, an error
Loading. Please wait.

Corduroy Bass Tab

version 2
version 2

Whole song

Interactive

2,212 views 24 this week
no commentswrite comment
1 2 3 4 5
accurate
x 4
add to favorites
launch autoscroll
font size
0
reset
guitar tuner
Tab Pro tools
  • play this tab
  • loop segment
  • change instrument
  • show fretboard
  • metronome
×
Best way to learn
"Corduroy"
Autoscroll
slow
fast
+/-
esc
set tempo
stop
Contributor
Difficulty
novice
Tabbed by: Jason Hennessy

complete tab, everything should be right except the bridge part but just play around 
with it and you`ll figure it out. Enjoy !

Intro:
G|---------------------------|
D|---------------------------| x1
A|-777777777-0000000-333333--|
E|---------------------------|

Verse:
G|-------------------|
D|-------------------| x5
A|-888888-7----------|
E|----------333333---|

Chorus:
G|--------------------|
D|--------------------| x4
A|-3333-222-0---------|
E|-----------333-0-3--|

Intro:
G|---------------------------|
D|---------------------------| x2
A|-777777777-0000000-333333--|
E|---------------------------|

Verse:
G|-------------------|
D|-------------------| x5
A|-888888-7----------|
E|----------333333---|

Chorus:
G|--------------------|
D|--------------------| x8
A|-3333-222-0---------|
E|-----------333-0-3--|

Bridge:
G|-------------------------------------------------|
D|-------------------------------------------------|
A|-2222222222-33333333333-0h22220022-33333002-2/5--|
E|-------------------------------------------------|

G|-------------------------------------------------|
D|-------------------------------------------------|
A|-0h22220022-33333002-2/5-22222222-33333333333----|
E|-------------------------------------------------|

Chorus:
G|--------------------|
D|--------------------| x6
A|-3333-222-0---------|
E|-----------333-0-3--|

Verse:
G|-------------------|
D|-------------------| x4
A|-888888-7----------|
E|----------333333---|

Outro:
G|---------------------|
D|---------------------| x4
A|-7~-----0~-----03~---|
E|---------------------|

G|---------------------------|
D|---------------------------| x6
A|-777777777-0000000-333333--|
E|---------------------------|
comments
print report bad tab
I want to post or [tab]
guest
You may want to rate the tab now too:
select rating
Please do not post tabs as comments. Select "correction" instead!