Oops, an error
Loading. Please wait.

Corduroy Live tab

version 6
version 6

Interactive

1,074 views 6 this week
4 commentsread comments
1 2 3 4 5
1 last vote to show rating
add to favorites
×
Save as Personal and add changes to this tab that will be seen only by you. Learn more ›
×
You can save this tab as Personal to edit and correct it or add notes. All changes will be seen only by you. Learn more »
launch autoscroll
font size
0
reset
how to read this tab
guitar tuner
edit
Autoscroll
slow
fast
+/-
esc
set tempo
stop
Author
Difficulty
-----------------------------------------------------------------------------
                        Corduroy (live)- Pearl Jam
-----------------------------------------------------------------------------
Tabbed by: ehbacon, and Jared Brustman
with help from: Pelusteriano

E-mail: ehbacon@att.net

Tuning: Standard (played on Rhythm not Treble)


Intro:

e|--------------------------------------------------------------------------|
B|--------------------------------------------------------------------------|
G|--------------------------------------------------------------------------|
D|--9~-9~---9~--9~9~--9~-9~-----9~--9~--9~-9~-----9~--9~9~--9~-9~-----9~--9~|
A|-7--7---77---7-7---0--0-0------------7--7-7-7--7--77-7---0--0-0-----------|
E|--------------------------8~-8---8-8----------------------------8--8---8-8|

e|--------------------------------------------------------------------------|
B|--------------------------------------------------------------------------|
G|--------------------------------------------------------------------------|
D|--9~-9~-----9~--9~9~--9~-9~-----9~--9~--9~-9~-----9~--9~9~-999999999999999|
A|-7--7-7-7--7--77-7---0--0-0------------7--7-7-7--7--77-7---00000000XXXXXXX|
E|----------------------------8~-8---8-8-----------------------------8888888|

Verse: played 5 times

e|-1111-00-3-33-333--|
B|-1111-00-3-33-333--|
G|-2222-11-0-00-000--|
D|-3333-22-0-00-000--|
A|------22-0-00-000--|
E|---------3-33-333--|

Second Verse: played 4 times

e|--------------------|
B|--------------------|
G|-5555-4444----------|
D|-5555-4444-7-7\5-55-|
A|-3333-2222-7-7\5-55-|
E|-----------5-5\3-33-|

Chorus: played 6 times

e|-3-3-33-223-33-33222--|
B|-3-3-33-333-33-33333--|
G|-0-0-00-000-00-00000--|
D|----------------------|
A|----------------------|
E|----------------------|

Main Riff:

e|--------------------------------------------------------------------------|
B|--------------------------------------------------------------------------|
G|--------------------------------------------------------------------------|
D|--9~-9~-----9~--9~9~--9~-9~-----9~--9~--9~-9~-----9~--9~9~-999999999999999|
A|-7--7-7-7--7--77-7---0--0-0------------7--7-7-7--7--77-7---00000000XXXXXXX|
E|----------------------------8~-8---8-8-----------------------------8888888|


Order:

1. intro (played with little distortion)
2. verse (played with full distortion)
3. second verse (played with full distortion)
4. main riff (played with full distortion)
5. verse (played with full distortion)
6. second verse (played with full distortion)
7. chorus (played with full distortion)
8. verse (played with full distortion)
9. main riff (played clean)
10. solo (played with full distortion, solo changes a lot so I couldn't tab it, I do 
know that Eddie plays the main riff with distortion throughout the solo.)
************************************

| /   slide up
| \   slide down
| h   hammer-on
| p   pull-off
| ~   vibrato
| +   harmonic
| x   Mute note
| b   Bend
| pb  Pre-bend
| br  Bend release
| pbr Pre-bend release
| brb Bend release bend

************************************
Suggest correction
Creating personal tab
Creating personal tab
You can edit any tab online and save it as your Personal.

You can edit, replace or remove any tab part or add personal notes – all changes will be seen only by you.

Personal tabs can be accessed anytime from any device, even offline.
Learn more »
Give kudos to tab author, rate the tab!
1 2 3 4 5
comments
print report bad tab
4 comments total. Showing first comments.
0 reply
ehbacon 528 Jun 17, 2013 07:26 AM

just edited, hope its helpful! If you notice anything wrong email or message me on my UG account

0 reply
sovaso 1,406 Aug 27, 2013 05:18 PM

Solid. Five stars!

guest
You may want to rate the tab now too:
select rating
Wanna post a correction for this tab? Suggest correction