Oops, an error
Loading. Please wait.

Daughter Bass Tab

version 1
version 1

Whole song

Interactive

14,438 views 15 this week
1 commentread comment
1 2 3 4 5
x 3
add to favorites
launch autoscroll
font size
0
reset
guitar tuner
Autoscroll
slow
fast
+/-
esc
set tempo
stop
Help us to improve Ultimate-Guitar.com Take our survey!
×
Tuning
E A D G B E
PEARL JAM "DAUGHTER" - BASS TAB
--------------------
Normal Tuning

VERSE
|-----------------|---------------|
|-----------------|---------------|
|---------3-3-3-3-|-------3-3h5~--|
|-3-3-3/5—--------|-3-3-3---------| 
  
CHORUS
|-----------------|----------------|
|-----------------|----------------|
|-----------------|----------0h2h5-|
|-0-0-0-0-0-0-0-0-|-2-2-3-3--------|

|-----------------|----------------|
|-----------------|-4-4--5-5--7~---|
|-7-7-7-7-7-7-7-7-|----------------|
|-----------------|----------------|

OUTRO
|-----------------|---------------|
|-----------------|---------------|
|-----------------|---------0h2h5-|
|-0-0-0-0-0-0-0-0-|-2-2-3-3-------|

 h = hammeron
 p = pulloff
 ~ = vibrato
 / = slide up
 \ = slide down
(X)= hold note (let ring)

Tabbed by Mark Linwood
Corrected by DanielSonFocus
Suggest correction
Give kudos to tab author, rate the tab!
1 2 3 4 5
comments
print report bad tab
1 comment total.
0 reply
rritterson 101 Sep 16, 2007 02:18 AM

short and hard to match with the song

guest
You may want to rate the tab now too:
select rating
Wanna post a correction for this tab? Suggest correction