Oops, an error
Loading. Please wait.

Daughter Bass Tab

version 2
version 2

Whole song

Interactive

1,234 views 3 this week
no commentswrite comment
1 2 3 4 5
please rate
add to favorites
launch autoscroll
font size
0
reset
guitar tuner
Autoscroll
slow
fast
+/-
esc
set tempo
stop
Help us to improve Ultimate-Guitar.com Take our survey!
×
Author
Difficulty
novice
Tabbed by: Jason Hennessy

This is the way i play it... the Chorus is from a version i seen on youtube
that has a nice ring to it. I`ll copy the link below, Enjoy ! 

http://www.youtube.com/watch?v=6QbKLK7XDfg&list=PLhkUxkViLu3wcXfgDAmlkD4HS5Qpa0Csa

verse
|----------|-------------|
|----------|-------------|  x4
|-----3333-|-----333-3h5-|
|-333------|-333---------| 

|----------|
|----------|  x1
|-----3333-|
|-333------| 

chorus
|-----------------------------------|
|---------------02-24-457-----------| x1
|----------0-02---------------------|
|-0-02-2-3--------------------------|

verse
|----------|-------------|
|----------|-------------|  x4
|-----3333-|-----333-3h5-|
|-333------|-333---------| 

|----------|
|----------|  x1
|-----3333-|
|-333------|

chorus
|-----------------------------------|
|---------------02-24-457-----------| x1
|----------0-02---------------------|
|-0-02-2-3--------------------------|

|----------|
|----------|  x1
|----------|
|-3333333--|

|-----------------------------------|
|---------------02-24-457-----------| x1
|----------0-02---------------------|
|-0-02-2-3--------------------------|


verse
|----------|-------------|
|----------|-------------|  x4
|-----3333-|-----333-3h5-|
|-333------|-333---------| 

Pause

verse
|----------|-------------|
|----------|-------------|  x4
|-----3333-|-----333-3h5-|
|-333------|-333---------|

|----------|
|----------|  x1
|-----3333-|
|-333------|

chorus
|-----------------------------------|
|---------------02-24-457-----------| x3
|----------0-02---------------------|
|-0-02-2-3--------------------------|

Outro
|-----------------------------------|
|-----------------------------------|
|-----------------------------------|
|-0-0-0-0-0-0-0-0-0-0-0-0-0-0-0-0-0-|

 h = hammeron
 p = pulloff
 ~ = vibrato
 / = slide up
 \ = slide down
(X)= hold note (let ring)
Suggest correction
Give kudos to tab author, rate the tab!
1 2 3 4 5
comments
print report bad tab
guest
You may want to rate the tab now too:
select rating
Please do not post tabs as comments. Select "correction" instead!