Oops, an error
Loading. Please wait.

Do The Evolution Tab

version 3
version 3
7,989 views 12 this week
no commentswrite comment
1 2 3 4 5
please rate
add to favorites
launch autoscroll
font size
0
reset
how to read this tab
guitar tuner
Autoscroll
slow
fast
+/-
esc
set tempo
stop
Help us to improve Ultimate-Guitar.com Take our survey!
×
Author
#----------------------------------PLEASE NOTE--------------------------------#
#This file is the author's own work and represents their interpretation of the#
#song. You may only use this file for private study, scholarship, or research.#
#-----------------------------------------------------------------------------#
#-- File created with Instab - http://www.pconline.com/~smcarey/instab.html --#
#-----------------------------------------------------------------------------#

Author/Artist: Pearl Jam
Title: Do The Evolution

A arpeggio
B bend
P pull off
/ slide up
\ slide down


Strum between 1st and 2nd pickup.


Palm mute top four strings.
Tuning (eb A D G B E)


----|----------------|--|-------|
----|----------------|--|-------|
----|-4--4-4-4-4--7--|--|-------|
----|-5--3-5-3-5--5--|--|-8--7--|
----|-5--5-5-5-5--5--|--|-7--6--|
----|----------------|--|-------|
                         Pick

  Intro/Verse

----|-------------------------------------------------------------------------------------5-|
----|-------------------------------------------------------------------------------------5-|
----|-------------------------------------------------------------------------------------7-|
----|-------------------------------------------------------------------------------------7-|
----|-------------------------------------------------------------------------------------5-|
----|-14--11-11--11--11--14---11-11--11--11-13---11-9--9--9-11-13-9-7--6--14--11--13--11----|

 A

  Bridge 1

---10-10-10-10-10-10-10---10-10-10\---|--|
---10-10-10-10-10-10-10---10-10-10\---|--|
-/------------------------------------|--|
-/------------------------------------|--|
--------------------------------------|--|
--------------------------------------|--|

----|-10-10-10-10-|
----|-11-10-9--8--|
----|-------------|
----|-------------|
----|-------------|
----|-------------|


  Bridge 2


----|-0---|----------|--|
----|-5---|----------|--|
----|-7---|-x-10-7---|--|
----|-7---|-x-7----7-|4x|
----|-----|----------|--|
----|-----|----------|--|
      A
Suggest correction
Give kudos to tab author, rate the tab!
1 2 3 4 5
comments
print report bad tab
guest
You may want to rate the tab now too:
select rating
Wanna post a correction for this tab? Suggest correction