Oops, an error
Loading. Please wait.

Do The Evolution Tab

version 3
version 3
7,669 views 9 this week
no commentswrite comment
1 2 3 4 5
worth learning
x 1
add to favorites
launch autoscroll
font size
0
reset
how to read this tab
guitar tuner
Tab Pro tools
  • play this tab
  • loop segment
  • change instrument
  • show fretboard
  • metronome
Autoscroll
slow
fast
+/-
esc
set tempo
stop
Contributor
#----------------------------------PLEASE NOTE--------------------------------#
#This file is the author's own work and represents their interpretation of the#
#song. You may only use this file for private study, scholarship, or research.#
#-----------------------------------------------------------------------------#
#-- File created with Instab - http://www.pconline.com/~smcarey/instab.html --#
#-----------------------------------------------------------------------------#

Author/Artist: Pearl Jam
Title: Do The Evolution

A arpeggio
B bend
P pull off
/ slide up
\ slide down


Tuning (eb A D G B E),(eb, D) Down ~ 10%
Live Standard Tuning
Key: (E + A) or (D + C#)


----|----------------|--|-------|
----|-------------3--|--|-------|
----|-4--4-4-4-4--4--|--|-------|
----|-5--3-5-3-5-----|--|-8--7--|
----|-5--5-5-5-5-----|--|-7--6--|
----|----------------|--|-------|
                         Pick                                                  

  Intro/Verse





----|-------------------------------------------------------------------------------------5-|
----|-------------------------------------------------------------------------------------5-|
----|-------------------------------------------------------------------------------------7-|
----|-------------------------------------------------------------------------------------7-|
----|-------------------------------------------------------------------------------------5-|
----|-14--11-11--11--11--14---11-11--11--11-13---11-9--9--9-11-13-9-7--6--14--11--13--11----|
                                                                                          A

  Bridge 1                                                                                                                                   

---10-10-10-10-10-10-10---10-10-10\---|--|
---10-10-10-10-10-10-10---10-10-10\---|--|
-/------------------------------------|--|
-/------------------------------------|--|
--------------------------------------|--|
--------------------------------------|--|
              


                            

----|-10-10-10-10-|
----|-11-10-9--8--|
----|-------------|
----|-------------|
----|-------------|
----|-------------|
  

  Bridge 2


----|-0---|----------|--|
----|-5---|----------|--|
----|-7---|-x-10-7---|--|
----|-7---|-x-7----7-|4x|
----|-----|----------|--|
----|-----|----------|--|
      A                                                                          

                                  
                                    
comments
We did not receive enough feedback on this tab! Please rate:
print report bad tab
1 2 3 4 5
I want to post or [tab]
guest
You may want to rate the tab now too:
select rating
Please do not post tabs as comments. Select "correction" instead!