Oops, an error
Loading. Please wait.

Elderly Woman Behind The Counter Bass Tab

version 2
version 2

Whole song

Interactive

2,724 views 6 this week
no commentswrite comment
1 2 3 4 5
x 3
add to favorites
launch autoscroll
font size
0
reset
guitar tuner
Autoscroll
slow
fast
+/-
esc
set tempo
stop
Help us to improve Ultimate-Guitar.com Take our survey!
×
Author
+++++++++++++++++++++++++++++++++++++++++++++++++++++++++++++++
| Pearl Jam- Elderly Woman Behind The Counter In A Small Town |
+++++++++++++++++++++++++++++++++++++++++++++++++++++++++++++++


"Hearts and thoughts they fade... fade away..."


Tuning: EADG


Verse
"I seem to recognize your face..."
1.
G|------------------------------------|
D|------------------------------------|
A|--------------------------------0-3-|
E|------------------------------------|

"Haunting, familiar, yet I cant seem..."
2.
G|-------------------------------------|
D|-------------------------------------|
A|-5~---3~---2~------3~------2~--------|
E|--------------------------------3~---|
   D    C    G       C       G
 
"Cannot find the candle..."
3.
G|----------------------------------------------------------------------|
D|----------------------------------------------------------------------|
A|-5~---3~---2~----2-3~----3-2~------5~---3~---2~----2-3~----3-2~-----2-|
E|----------------------------------------------------------------------|

Pre-Chorus
"All these changes taking place..."
4.
G|-------------------------------------------------------------------------------|
D|-------------------------------------------------------------------------------|
A|-3~----3-3-0~----0-0-3~----3-3-0~----0-0-3~----3-3-0~---0-0-7~--------7~---7\--|
E|-----------------------------------------------------------------0~------------|
   C         A         C         A         C         A        Em

Chorus
"Hearts and thoughts they fade..."
5.
G|------------------------------------------------------------------------|
D|------------------------------------------------------------------------|
A|-5~---3~---2~------3~------2~--------5~---3~---2~-----3~------2~--------|
E|--------------------------------3~---------------------------------3~---|

Verse
"I swear I recognize your breath..."
6.
G|------------------------------------------------------------------------|
D|------------------------------------------------------------------------|
A|-5~---3~---2~----2-3~----3-2~----2-3-5~---3~---2~-----3~------2~--------|
E|-------------------------------------------------------------------3~---|

"Me, you wouldnt recall..."
7.
G|-----------------------------------------------------------------------|
D|-----------------------------------------------------------------------|
A|-5~---3~---2~------3~------2~--------5~---3~---2~-----3~---3-3-2~------|
E|--------------------------------3~-------------------------------------|

Pre-Chorus
"I changed by not changing at all..."
8.
G|-------------------------------------------------------------------------------|
D|-------------------------------------------------------------------------------|
A|-3~----3-3-0~----0-0-3~----3-3-0~----0-0-3~----3-3-0~---0-0-7~--------7~---7\--|
E|-----------------------------------------------------------------0~------------|

Verse
"I just wanna scream hello..."
9.
G|------------------------------------------------------------------------|
D|------------------------------------------------------------------------|
A|-5~---3~---2~----2-3~----3-2~----2-3-5~---3~---2~-----3~------2~--------|
E|-------------------------------------------------------------------3~---|

"But now here you are..."
10.
G|------------------------------------------------------------------------|
D|------------------------------------------------------------------------|
A|-5~---3~---2~----2-3~----3-2~----2-3-5~---3~---2~-----3~------2~--------|
E|-------------------------------------------------------------------3~---|

Chorus 
"Hearts and thoughts they fade..."
11.
G|------------------------------------------------------------------------|
D|------------------------------------------------------------------------|
A|-5~---3~---2~------3~------2~--------5~---3~---2~-----3~------2~--------|
E|--------------------------------3~---------------------------------3~---|



Lyrics:


I seem to recognize your face
Haunting, familiar yet, I can't seem to place it
Cannot find the candle of thought to light your name
Lifetimes are catching up with me
All these changes taking place, I wish I'd seen the place
But no one's ever taken me
Hearts and thoughts they fade, fade away... 

I swear I recognize your breath
Memories like fingerprints are slowly raising
me, you wouldnt recall, for I'm not my former
It's hard when you're stuck upon the shelf
I changed by not changing at all, small town predicts my fate
Perhaps that's what no one wants to see
I just want to scream...hello...
My god its been so long, never dreamed you'd return
But now here you are, and here I am
Hearts and thoughts they fade...away...




+++++++++++
| Raileff |
+++++++++++
Suggest correction
Give kudos to tab author, rate the tab!
1 2 3 4 5
comments
print report bad tab
guest
You may want to rate the tab now too:
select rating
Wanna post a correction for this tab? Suggest correction