Oops, an error
Loading. Please wait.

Even Flow Bass

version 1
version 1

Whole song

63,776 views 27 this week
4 commentsread comments
1 2 3 4 5
x 20
add to favorites
launch autoscroll
font size
0
reset
guitar tuner
backing track
0:00
0:00
×
Best way to learn
"Even Flow"
Autoscroll
slow
fast
+/-
esc
set tempo
stop
[Intro]
G|----------------------------|
D[*-------------------------*-|
A[*-------------------------*-|
E|---0-57--0-5--0-5-0-0-------|

Just before Eddie goes "yeah" play this:
G|--------------------|
D|-------------------*|
A|-5-3--------------*-|
E|------6-5-3-0-3-5---|

[Verse] (x3)
G|---------------------------|
D[*-------------------------*|
A[*-------------------------*|
E|---0-57--0-5--0-5-0-0------|

[Chorus]
G|-------------3-----------3-------------------------5--------5----------*|
D|-----------------------------------------0----0------------------------*|
A|-5----5\-1-----1-0-1-1----1-1-1-1-3/---------3----3-0-3----3-3-3-3-3-0-*|
E|----0---------------------------------------0--------------------------*|

(You can easily figure out where they go. The other part is quite simple.)
G|---------------------------------|
D|-------------------------------*-|
A|-3-3-3-3-3-4-5-5-5-5-5-5-0-*-----|
E|---------------------------------|


************************************

| *  Natural harmonic
| /  Slide up
| \  Slide down

************************************
Suggest correction
comments
print report bad tab
4 comments total. Showing first comments.
+1 reply
sam__lan 10 Mar 14, 2004 07:00 PM

hey dude I don't know where you found that book but I think that wasn't the right book because it is in drop D and the intro goes like this
-----------
-----------
----5-5----
-057-0-00--

and the chorous seem to be ok but again it is in drop D and for the
so maybe a little mistake in tabbing it but it's ok you'll get it next time

0 reply
Mudmen190 10 Oct 10, 2008 09:21 PM

I also think its in drop d.

-2 reply
Carls Jr Nation 10 Aug 24, 2010 01:38 PM

Open D

10char

guest
You may want to rate the tab now too:
select rating
Wanna post a correction for this tab? Suggest correction