Oops, an error
Loading. Please wait.

Even Flow Tab

version 1
version 1
104,169 views 30 this week
6 commentsread comments
1 2 3 4 5
x 12
add to favorites
launch autoscroll
font size
0
reset
how to read this tab
guitar tuner
backing track
0:00
0:00
×
Best way to learn
"Even Flow"
Autoscroll
slow
fast
+/-
esc
set tempo
stop
e|---------------------------------|---------------------------------|
B|---------------------------------|---------------------------------|
G|---------------------------------|---------------------------------|
D|---------------------------------|---------------------------------|
A|---------------------5--3--------|---------------------5--3--------|
E|--0--0--3p--0--0--0--------5--3--|--0--0--3p--0--0--0--------5--3--|

e|---------------------------------|-------------------------------|
B|---------------------------------|-------------------------------|
G|---------------------------------|-------------------------------|
D|---------------------------------|-------------------------------|
A|---------------------5--3--------|--5--3--0----------------------|
E|--0--0--3p--0--0--0--------5--3--|-----------5--3--0--3--5--0----|

e|--------------------------|----------------------------|
B|--------------------------|----------------------------|
G|--------------------------|----------------------------|
D|--7--------3--------3--3--|--7--------5--------5-5-5-7-|
A|--5--------1--------1--1--|--5--------3--------3-3-3-5-|
E|--------------------------|----------------------------|

e|-----------------------------|----------------------------|
B|--------------------5pbr--3--|----------------------------|
G|-----------------------------|----------------------------|
D|--7--------3-----------------|--7--------5--------5-5-5-7-|
A|--5--------1-----------------|--5--------3--------3-3-3-5-|
E|-----------------------------|----------------------------|

e|-----------------------------|------------------------|----------------------|
B|--------------------5pbr--3--|------------------------|----------------------|
G|-----------------------------|------------------------|----------------------|
D|--7--------3-----------------|--7--------5------------|--7--------5----------|
A|--5--------1-----------------|--5--------3------------|--5--------3----------|
E|-----------------------------|------------------------|----------------------|

e|------------------------|---------------------------------|
B|------------------------|---------------------------------|
G|------------------------|---------------------------------|
D|--7--------5------------|---------------------------------|
A|--5--------3------------|---------------------5--3--------|
E|------------------------|--0--0--3p--0--0--0--------5--3--|

e|---------------------------------|---------------------------------|
B|---------------------------------|---------------------------------|
G|---------------------------------|---------------------------------|
D|---------------------------------|---------------------------------|
A|---------------------5--3--------|---------------------5--3--------|
E|--0--0--3p--0--0--0--------5--3--|--0--0--3p--0--0--0--------5--3--|

e|-------------------------------|
B|-------------------------------|
G|-------------------------------|
D|-------------------------------|
A|--5--3--0----------------------|
E|-----------5--3--0--3--5--0----|
Suggest correction
comments
print report bad tab
6 comments total. Showing first comments.
+1 reply
Teen Spirit 656 May 19, 2009 11:39 AM

really bad. Inaccurate, no solo, nothing.

+1 reply
antman1385 140 Jun 22, 2009 04:47 PM

what the hell is this sh!it?

0 reply
sovaso 1,405 Jun 04, 2013 04:28 PM

?????????
What?

guest
You may want to rate the tab now too:
select rating
Wanna post a correction for this tab? Suggest correction