Oops, an error
Loading. Please wait.

Garden Tab

version 3
version 3

Whole song

Interactive

45,111 views 162 this week
1 commentread comment
1 2 3 4 5
excellent!
x 15
add to favorites
launch autoscroll
font size
0
reset
how to read this tab
guitar tuner
Autoscroll
slow
fast
+/-
esc
set tempo
stop
Help us to improve Ultimate-Guitar.com Take our survey!
×
Author
Garden-Pearl Jam

This is one of my favourite Pearl Jam songs and this is my first tab and I think it’s pretty good.
Enjoy.


e—-2^0-0-------0------0-----|-2^0-0-------0---0-----|-2^0-0-------0-----0----|
B--------0---1---1------1---|-------0---1---1---1---|-------0---1---1-----1--|
G--2-------2-------2------2-|-2-------2-----------2-|-2-------2-------2-----2|
D---------------------------|-----------------------|------------------------|
A---------------------------|-----------------------|------------------------|
E---------------------------|-----------------------|------------------------|


Use these chords to play the chorus
  Am   G   F/C
e|-5----3----1-------------------------------------------------------------|
B|-5----3----1-------------------------------------------------------------|
G|-5----4----2-------------------------------------------------------------|
D|-7----5----3-------------------------------------------------------------|
A|-7----5----3-------------------------------------------------------------|
E|-5----3------------------------------------------------------------------|


The bridge might be in drop D for the D5 chord in there but the rest of the song isn’t 
drop D so I’m leaving it that way

e|---------------------------------------------------------------------------|
B|----------33---------------------------------------------------------------|
G|----------22---------------------------------------------------------------|
D|-77-55-44-00---------------------------------------------------------------|
A|-77-55-44------------------------------------------------------------------|
E|-55-33-22------------------------------------------------------------------|


[Solo]

e|--------------------------------|-----------5----------5------------------------------|
B|--------------------------------|-------5^8---5-8b-------8^5-5------------------------|
G|-7b---------7b-7bp5-----5-5-----|---------------------------7-7br5--------------------|
D|----------------------------7---|---------------------------------7-555---------------|
A|--------------------------------|---------------------------------------7-6-5-3-5br-3-|
E|--------------------------------|-----------------------------------------------------|
                                        Bend the 15 to a 16.5 not 17
e|--------------------------|----12--12--12------------------|
B|--------------------------|----15b-15b-15br---15^13--------|
G|-------5---5-7br-p5--p0---|--------------------------------|
D|---5-7---7----------------|--------------------------------|
A|--------------------------|--------------------------------|
E|--------------------------|--------------------------------|

e|-------20^17---------17--20-20^17--------|--19--20—19-19^20^19-----------|
B|---20b-------20b--20—20b----------20b-20-|----------------------17-------|
G|-----------------------------------------|-------------------------------|
D|-----------------------------------------|-------------------------------|
A|-----------------------------------------|-------------------------------|
E|-----------------------------------------|-------------------------------|

e|-19--20-20-19^20^19-----19--20-20-19^20^19----|----17--17-17--------------------------|
B|--------------------17---------------------17-|-20b—20b---20b--20-17--17--------------|
G|----------------------------------------------|---------------------19—19br-17—17-1917|
D|----------------------------------------------|-------------------------------19------|
A|----------------------------------------------|---------------------------------------|
E|----------------------------------------------|---------------------------------------|
                (Play three times)
e|----------------------------------------|
B|----------------------------------------|
G|-19-17-19-17-19-17----------------------|
D|-------------------19-17----------------|
A|-------------------------19-18-17-------|
E|----------------------------------20-17-|


The guitar starts to pick up speed here
e|-----------------------17^19^17^20^17^19^17^20-20b-20b-20b--17----19----|
B|-------------------20b-----------------------------------20-------------|
G|---19-17-19-17-19-------------------------------------------------------|
D|---19-17-19-17-19-------------------------------------------------------|
A|------------------------------------------------------------------------|
E|------------------------------------------------------------------------|

e|--19^20^19^20^19^20^19^20^19^20^19^20^19^20^19--------------------------|
B|-----------------------------------------------20br---17^20^17----------|
G|----------------------------------------------------19--------191719br--|
D|------------------------------------------------------------------------|
A|------------------------------------------------------------------------|
E|------------------------------------------------------------------------|

Then he jsut keeps playing those notes and the music fades
e|--------------------------------------------------------------|
B|--------------------------------------------------------------|
G|-17--17----------------------------------------17—171919br----|
D|---19--1917--17------------------------17--1719--19-----------|
A|-----------19--191817--17------17--1719--19-------------------|
E|---------------------20--201720--20---------------------------|



************************************

| p   Pull-off
| b   Bend
| br  Bend release

************************************
Suggest correction
What's this?
You can suggest a correction to this tab. Community and Mods will review your correction and vote to approve or reject it.
comments
print report bad tab
1 comment total.
+1 reply
guitardude :0 12 wrote on January 18 2009, 11:24 am

i love this tab, it is definitly the best garden tab online, 100%

guest
You may want to rate the tab now too:
select rating
Please do not post tabs as comments. Select "correction" instead!