Oops, an error
Loading. Please wait.

Given To Fly Tab

version 1
version 1

Whole song

Interactive

57,614 views 90 this week
4 commentsread comments
1 2 3 4 5
excellent!
x 4
add to favorites
launch autoscroll
font size
0
reset
how to read this tab
guitar tuner
Autoscroll
slow
fast
+/-
esc
set tempo
stop
Help us to improve Ultimate-Guitar.com Take our survey!
×
v stum down
^ strum up

[Intro]
e|----------------------------------------------------------------------------|
B|----------12--8----8-----------------------------12--8----8-----------------|
G|----------0--------0---------------7-7-----------0--------0-----------------|
D|----------------------------------------------------------------------------|
A|-9h10--10-------10---9h10p9-9-7--5------9h10--10-------10---9h10p9-9--5--5--|
E|----------------------------------------------------------------------------|
         v  ^   ^ v  ^ v      v ^  v ^ v                                v  v  

[Verse]
e|------5------------7p5------------|-------------------------------------------|
B|---------5-5--7--7-----5--5--7/12-|----------12--8----8-----------------------|
G|--7-7-----------------------------|----------0--------0---------------7-7-----|
D|----------------------------------|-------------------------------------------|
A|----------------------------------|-9h10--10-------10---9h10p9-9-7--5---------|
E|----------------------------------|-------------------------------------------|
    ^ v ^  v v  v  v v   ^  v  v                                         

e|----------------------------------------5------------5----------|-------------|
B|----------12--8----8-----------------------5-5--7--7----5-5--7--|-------------|
G|----------0---0----0----------------7-7-------------------------|-------------|
D|----------------------------------------------------------------|-------------|
A|-9h10--10-------10---9h10p9-9--5--5-----------------------------|-------------|
E|----------------------------------------------------------------|-------------|
                                          ^  v v  v  v ^  v v  v                

[Pre-Chorus]
e|-----------------------------------------5---------------------5-5-|-5-5-5--|
B|----------12--8----8------------------------5-5--7--5--5-5--5--7-7-|-5-5-5--|
G|----------0--------0-----------------7-7---------7--7--7-7--7--7-7-|-7-7-7--|
D|------------------------------------------------------------7----7-|-7-7-7--|
A|-9h10--10-------10---9h10p9-9--5--5--------------------------------|-5-5-5--|
E|-------------------------------------------------------------------|---5-5--|
                                                      v  ^ v  ^  ^ v   v ^ v  

e|--5-5--5--5--5-5-5-5--5-5--5--5--5-----|-3-3-3-3-3-3-3-3-3--3-3--3-3-3--3-----|
B|--5-5--5--7--7-5-5-5--5-5--5--7--7-x-x-|-3-3-3-3-3-3-3-3-3--3-3--3-3-3--3-----|
G|--7-7--7--7--7-7-7-7--7-7--7--7--7-x-x-|-0-0-0-0-0-0-0-0-0--0-0--0-0-0--0-----|
D|--7-7--7--7--7-7-7-7--7-7--7--7--7-x-x-|-0-0-0-0-0-0-0-0-0--0-0--0-0-0--0-----|
A|--5-5--5--5--5-5-5-5--5-5--5--5--5-x-x-|-2-2-2-2-2-2-2-2-2--2-2--2-2-2--2-----|
E|--5-5--5-------5-5-5--5-5--5--5--5-----|-3-3-3-3-3-3-3-3-3--3-3--3-3-3--3-----|
    ^ v  ^  ^  v continue   to chorus      v ^ v ^ v ^ v ^ v  v ^  ^ v ^  ^     

e|-3-3--3-3-3--3-3-3--3-3--3-3--------------------------------|-----------------|
B|-3-3--3-3-3--3-3-3--3-3--3-3-----7-7--7-x-x----7-7--7---7---|-----------------|
G|-0-0--0-0-0--0-0-0--0-0--0-0--7--7-7--7-x-x-7--7-7--7-7-7-7-|-----------------|
D|-0-0--0-0-0--0-0-0--0-0--0-0--7--7-7--7-x-x-7--7-7--7-7-7-7-|-10-10--10-10----|
A|-2-2--2-2-2--2-2-2--2-2--2-2--5--5-5--5-x-x-5--5-5--5-5-5-5-|-10-10--10-10----|
E|-3-3--3-3-3--3-3-3--3-3--3-3--5--5-5--5-x-x-5--5-5--5-5-5-5-|-8--8---8--8-----|
   v ^  ^ v ^  ^ v ^  ^ ^  ^ ^  v  v v  v v ^ v  v v  v v ^ v   v  ^   v  v     

e|-------------------------------------------------------------------------|----|
B|----------------------------------------------7-7--7-x-x----7-7--7---7---|-5--|
G|-------------------------------------------7--7-7--7-x-x-7--7-7--7-7-7-7-|-7--|
D|-10-10\-\5--10-10--10-10--10-10-999--------7--7-7--7-x-x-7--7-7--7-7-7-7-|-7--|
A|-10-10\-\5--10-10--10-10--10-10-999-7-7-5--5--5-5--5-x-x-5--5-5--5-5-5-5-|-5--|
E|-8--8-\-\3--8--8---8--8---8--8--777-5-5-3--5--5-5--5-x-x-5--5-5--5-5-5-5-|-5--|
   ^  v       v  ^   v  v   ^  v  v^v v ^ v               second time end >  v  

e|----------------|------|------|-7------------7---8-7---|------7------------7--|
B|--5-5--5-7---3--|------|------|---8-6-8--8p6---8-------|--------8-6-8--8p6----|
G|--7-7--7-7\--5--|------|------|------------------------|----------------------|
D|--7-7--7-7\--5--|------|------|------------------------|----------------------|
A|--5-5--5-5---3--|------|------|------------------------|----------------------|
E|--5-5--5-5---3--|------|------|------------------------|----------------------|
    ^ v v  ^   v    verse chorus second    interlude end   outro^ v v v  v   v  

e|---8-7-7------------7---8-7--7-----------------------------------|------------|
B|-8-------8-6-8--8p6---8--------8-6--6/8--3--3\0------------------|------------|
G|------------------------------------------------4--4/0-0--4/0-0--|------------|
D|-----------------------------------------------------------------|------------|
A|-----------------------------------------------------------------|------------|
E|-----------------------------------------------------------------|------------|
   ^ ^ v                                                                        


Alternative Version

[Intro]

Clean guitar, with either a Flanger or Phaser. I'm not quite sure.
Let ring throughout.
Finger style.
e|-----------------------------------|------------------------------|
B|------------8----12----8-----------|--------------5----3----------|
G|------------0---------------0------|---------0-------------0------|
D|---h-h-----------------------------|---s-----------------------0--|
A|--0^9^10---------10-------------0--|--7/9---------7----5----------|
E|-----------------------------------|------------------------------|

e|-----------------------------------|------------------------------|
B|------------8----12----8-----------|--------------3-----------3---|
G|------------0---------------0------|---------0---------0----------|
D|---h-h-----------------------------|---s-------------------0------|
A|--0^9^10---------10-------------0--|--7/9---------5---------------|
E|-----------------------------------|------------------------------|

e|--5-------0-------------------|--5-------0-------------------||
B|-----------------5------7-----|-----------------5------7-----||
G|------------------------------|------------------------------||
D|--0---------------------------|--0---------------------------||
A|------------------------------|------------------------------||
E|------------------------------|------------------------------||

[Verse 1]
 
Clean guitar, with either a Flanger or Phaser. I'm not quite sure.

Let ring throughout.

e|----------------------------------|----------------------------|
B|------------8----12----8----------|--------------5---3---------|
G|*-----------0--------------0------|---------0------------0-----|
D|*---h-h---------------------------|---s---------------------0--|
A|---0^9^10--------10------------0--|--7/9---------7---5---------|
E|----------------------------------|----------------------------|
    Could've tuned in..........
    Alone in a corridor..........
    Made it to the ocean..........


e|-----------------------------------|-----------------------------|
B|------------8----12----8-----------|-------------3------------3--|
G|------------0---------------0------|---------0--------0----------|
D|---h-h-----------------------------|---s------------------0------|
A|--0^9^10---------10-------------0--|--7/9--------5---------------|
E|-----------------------------------|-----------------------------|
                                                      Play 3 times
e|--5------0--------------------|--5------0---------------------||
B|----------------5------7------|----------------5------7-------||
G|------------------------------|------------------------------*||
D|--0---------------------------|--0---------------------------*||
A|------------------------------|-------------------------------||
E|------------------------------|-------------------------------||
  Gradually increase the gain 3rd time around.
e|--5------0-----0------0-------|--5------0------0------0--------|
B|---------------5------7-------|----------------5------7--------|
G|------------------------------|--------------------------------|
D|--0---------------------------|--0-----------------------------|
A|------------------------------|--------------------------------|
E|------------------------------|--------------------------------|


[Pre-Chorus]
      G                              G

e||--7---7--7---8---7---7--7--7--|--7---7---7--8---7---7--7--7--|
B||--8---8--8---8---8---8--8--8--|--8---8---8--8---8---8--8--8--|
G||*-0---0--0---0---0---0--0--0--|--0---0---0--0---0---0--0--0--|
D||*-----------------------------|------------------------------|
A||------------------------------|------------------------------|
E||------------------------------|------------------------------|
    Wave came crashing..........
    Arms wide open..........

      G                              G

e|----7---7--7---8---7---7--7--7--|--7---7---7--8---7---7--7--7--|
B|----8---8--8---8---8---8--8--8--|--8---8---8--8---8---8--8--8--|
G|----0---0--0---0---0---0--0--0--|--0---0---0--0---0---0--0--0--|
D|--------------------------------|------------------------------|
A|--------------------------------|------------------------------|
E|--------------------------------|------------------------------|     D                  D
              h                              h
e|---0---2--0^2-2---2---2--2--2--|--0---2--0^2-2---2---2--2--2--||
B|---3---3--3---3---3---3--3--3--|--3---3--3---3---3---3--3--3--||
G|---2---2--2---2---2---2--2--2--|--2---2--2---2---2---2--2--2-*||
D|---0---0--0---0---0---0--0--0--|--0---0--0---0---0---0--0--0-*||
A|-------------------------------|------------------------------||
E|-------------------------------|------------------------------||


[Chorus 1]

With distortion.
      C                            C                         B  A

e||-----------------------------|---------------------------------|
B||-----------------------------|---------------------------------|
G||*-------------------------s--|---------------------------------|
D||*-10--10---10--10---10--10--|-10--10---10--10---10--10--9--7--|
A||--10--10---10--10---10--10--|-10--10---10--10---10--10--9--7--|
E||---8---8----8---8----8---8--|-8---8----8---8----8---8---7--5--|
                         Flying....                      Whole....


    G                               G

e|--0----------------------------|--3------------------------------||
B|--3----------------------------|--3------------------------------||
G|--0----------------------------|--0-----------------------------*||
D|--0----------------------------|--0-----------------------------*||
A|--2----------------------------|--2------------------------------||
E|--3----------------------------|--3------------------------------||

[Verse 2]

Clean guitar, with either a Flanger or Phaser. I'm not quite sure.

Let ring throughout.

e||----------------------------------|----------------------------|
B||------------8----12----8----------|--------------5---3---------|
G||*-----------0--------------0------|---------0------------0-----|
D||*---h-h---------------------------|---s---------------------0--|
A||---0^9^10--------10------------0--|--7/9---------7---5---------|
E||----------------------------------|----------------------------|
    Floated back down..........
    First he was stripped..........
e|-----------------------------------|-----------------------------|
B|------------8----12----8-----------|-------------3------------3--|
G|------------0---------------0------|---------0--------0----------|
D|---h-h-----------------------------|---s------------------0------|
A|--0^9^10---------10-------------0--|--7/9--------5---------------|
E|-----------------------------------|-----------------------------|
                                                      Play 3 times
e|--5------0--------------------|--5------0---------------------||
B|----------------5------7------|----------------5------7-------||
G|------------------------------|------------------------------*||
D|--0---------------------------|--0---------------------------*||
A|------------------------------|-------------------------------||
E|------------------------------|-------------------------------||
  Gradually increase the gain 3rd time around.
[Pre-Chorus]
      G                              G

e||--7---7--7---8---7---7--7--7--|--7---7---7--8---7---7--7--7--|
B||--8---8--8---8---8---8--8--8--|--8---8---8--8---8---8--8--8--|
G||*-0---0--0---0---0---0--0--0--|--0---0---0--0---0---0--0--0--|
D||*-----------------------------|------------------------------|
A||------------------------------|------------------------------|
E||------------------------------|------------------------------|
    Still gives his love..........
    Sometimes is seen..........

      G                              G

e|----7---7--7---8---7---7--7--7--|--7---7---7--8---7---7--7--7--|
B|----8---8--8---8---8---8--8--8--|--8---8---8--8---8---8--8--8--|
G|----0---0--0---0---0---0--0--0--|--0---0---0--0---0---0--0--0--|
D|--------------------------------|------------------------------|
A|--------------------------------|------------------------------|
E|--------------------------------|------------------------------|


     D                              D
              h                              h
e|---0---2--0^2-2---2---2--2--2--|--0---2--0^2-2---2---2--2--2--||
B|---3---3--3---3---3---3--3--3--|--3---3--3---3---3---3--3--3--||
G|---2---2--2---2---2---2--2--2--|--2---2--2---2---2---2--2--2-*||
D|---0---0--0---0---0---0--0--0--|--0---0--0---0---0---0--0--0-*||
A|-------------------------------|------------------------------||
E|-------------------------------|------------------------------||
   Saved....

[Chorus 2]

With distortion

   Guitar 1
     C                            C                         B  A
e |-----------------------------|---------------------------------|
B |-----------------------------|---------------------------------|
G |--------------------------s--|---------------------------------|
D |--10--10---10--10---10--10--|-10--10---10--10---10--10--9--7--|
A |--10--10---10--10---10--10--|-10--10---10--10---10--10--9--7--|
E |---8---8----8---8----8---8--|--8---8----8---8----8---8--7--5--|
  |                     Flying....                       Whole....
  |
  |
  |Guitar 2
  |
e |-----------------------------|---------------------------------|
B |-----------------------------|---------------------------------|
G |-----------------------------|---------------------------------|
D |-----------------------------|---------------------------------|
A |-----------------------------|---------------------------------|
E |-----------------------------|---------------------------------|     G                             G

e |--3--------------------------|--3------------------------------|
B |--3--------------------------|--3------------------------------|
G |--0--------------------------|--0------------------------------|
D |--0--------------------------|--0------------------------------|
A |--2--------------------------|--2------------------------------|
E |--3--------------------------|--3------------------------------|
  |
  |
  |
  |
  |
e |-----------------------------|---------------------------------|
B |-----------------------------|---------------------------------|
G |-----------------------------|-----???????????????????????-----|
D |-----------------------------|-----???????????????????????-----|
A |-----------------------------|---------------------------------|
E |-----------------------------|---------------------------------|
                                 I couldn't work this part out.
                                 Sorry.     C                            C                         B  A
e |-----------------------------|---------------------------------|
B |-----------------------------|---------------------------------|
G |--------------------------s--|---------------------------------|
D |--10--10---10--10---10--10--|-10--10---10--10---10--10--9--7--|
A |--10--10---10--10---10--10--|-10--10---10--10---10--10--9--7--|
E |---8---8----8---8----8---8--|--8---8----8---8----8---8--7--5--|
  |                     Flying....                       Whole....
  |
  |
  |
  |
e |-----------------------------|---------------------------------|
B |-----------------------------|---------------------------------|
G |-----------------------------|---------------------------------|
D |-----------------------------|---------------------------------|
A |-----------------------------|---------------------------------|
E |-----------------------------|---------------------------------|     G                             G

e |--3--------------------------|--3------------------------------|
B |--3--------------------------|--3------------------------------|
G |--0--------------------------|--0------------------------------|
D |--0--------------------------|--0------------------------------|
A |--2--------------------------|--2------------------------------|
E |--3--------------------------|--3------------------------------|
  |
  |
  |
  |
  |
e |--7--------------------------|--7---------8----7---------------|
B |-------8---6----8-----6---8--|-------8--------------8----6-----|
G |-----------------------------|---------------------------------|
D |-----------------------------|---------------------------------|
A |-----------------------------|---------------------------------|
E |-----------------------------|---------------------------------|

     C                            C                         B  A
e |-----------------------------|---------------------------------|
B |-----------------------------|---------------------------------|
G |--------------------------s--|---------------------------------|
D |--10--10---10--10---10--10--|-10--10---10--10---10--10--9--7--|
A |--10--10---10--10---10--10--|-10--10---10--10---10--10--9--7--|
E |---8---8----8---8----8---8--|--8---8----8---8----8---8--7--5--|
  |                     Flying....                       Whole....
  |
  |
  |
  |                                          
e |-----------------------------|---------------------------------|
B |-----------------------------|--------------s------------------|
G |--5--5--5--5--5--5--5--5-----|--5--5--5--(7)/9-----7-----5-----|
D |-----------------------------|---------------------------------|
A |-----------------------------|---------------------------------|
E |-----------------------------|---------------------------------|
   


     G                             G

e |--3--------------------------|--3------------------------------|
B |--3--------------------------|--3------------------------------|
G |--0--------------------------|--0------------------------------|
D |--0--------------------------|--0------------------------------|
A |--2--------------------------|--2------------------------------|
E |--3--------------------------|--3------------------------------|
  |
  |
  |
  |
  |
e |--7--------------------------|--7---------8----7---------------|
B |-------8----6----8----6--8---|-------8--------------8----6-----|
G |-----------------------------|---------------------------------|
D |-----------------------------|---------------------------------|
A |-----------------------------|---------------------------------|
E |-----------------------------|---------------------------------|
     C                            C                         B  A
e |-----------------------------|---------------------------------|
B |-----------------------------|---------------------------------|
G |--------------------------s--|---------------------------------|
D |--10--10---10--10---10--10--|-10--10---10--10---10--10--9--7--|
A |--10--10---10--10---10--10--|-10--10---10--10---10--10--9--7--|
E |---8---8----8---8----8---8--|--8---8----8---8----8---8--7--5--|
  |
  |
  |
  |
  |                                             s
e |--8--8--8--8--8--8--8--8-----|--8--8--8--(10)/12---10---8------|
B |-----------------------------|---------------------------------|
G |-----------------------------|---------------------------------|
D |-----------------------------|---------------------------------|
A |-----------------------------|---------------------------------|
E |-----------------------------|---------------------------------|
     G                             G

e |--3--------------------------|--3------------------------------|
B |--3--------------------------|--3------------------------------|
G |--0--------------------------|--0------------------------------|
D |--0--------------------------|--0------------------------------|
A |--2--------------------------|--2------------------------------|
E |--3--------------------------|--3------------------------------|
  |
  |
  |
  |
  |
e |--7--------------------------|--7---------8----7---------------|
B |-------8----6----8----6---8--|-------8--------------8----6-----|
G |-----------------------------|---------------------------------|
D |-----------------------------|---------------------------------|
A |-----------------------------|---------------------------------|
E |-----------------------------|---------------------------------|


[Outro]

Clean guitar, either with Flanger or Phaser. I'm not quite sure.

     G (not sure of the rhythm)   G
   Guitar 1
e |--3--------------------------|--3------------------------------|
B |--3--------------------------|--3------------------------------|
G |--0--------------------------|--0------------------------------|
D |--0--------------------------|--0------------------------------|
A |--2--------------------------|--2------------------------------|
E |--3--------------------------|--3------------------------------|
  |
  |
  |
  |
  |Guitar 2
e |--7--------------------------|--7---------8----7---------------|
B |-------8----6----8----6---8--|-------8--------------8----6-----|
G |-----------------------------|---------------------------------|
D |-----------------------------|---------------------------------|
A |-----------------------------|---------------------------------|
E |-----------------------------|---------------------------------|     G                             G

e |--3--------------------------|--3------------------------------|
B |--3--------------------------|--3------------------------------|
G |--0--------------------------|--0------------------------------|
D |--0--------------------------|--0------------------------------|
A |--2--------------------------|--2------------------------------|
E |--3--------------------------|--3------------------------------|
  |
  |
  |
  |
  |
e |--7--------------------------|---------------------------------|
B |-------8----6----8----(8)---|---------------------------------|
G |-----------------------------|--7-------------(7)-------------|
D |-----------------------------|---------------------------------|
A |-----------------------------|---------------------------------|
E |-----------------------------|---------------------------------|     G                             G

e |--3--------------------------|---------------------------------|
B |--3---------------------h----|----------------------------h----|
G |--0---------------------^2---|--0-------------------------^2---|
D |--0---------------------(0)--|--0-------------------------(0)--|
A |--2--------------------------|---------------------------------|
E |--3--------------------------|---------------------------------|
  |
  |
  |
  |
  |
e |-----------------------------|---------------------------------|
B |-----------------------------|-p-------------------------------|
G |--2--------------------------|-^0------------------------------|
D |-----------------------------|---------------------------------|
A |-----------------------------|---------------------------------|
E |-----------------------------|---------------------------------|
                                  Guitar 2 fades out

   Guitar 1
     G
   
e |-----------------------------|---------------------------------|
B |------------------------h----|----------------------------h----|
G |--0---------------------^2---|--0-------------------------^2---|
D |--0---------------------(0)--|--0-------------------------(0)--|
A |-----------------------------|---------------------------------|
E |-----------------------------|---------------------------------|

e |----------------------------||
B |----------------------------||
G |--0-------------------------||
D |--0-------------------------||
A |----------------------------||
E |----------------------------||



************************************

| x    Dead note
| (n)  Ghost note
| h    Hammer-on
| p    Pull-off
| /    Slide up
| \    Slide down
| s    Slide

************************************
Suggest correction
comments
print report bad tab
4 comments total. Showing first comments.
+1 reply
luthman 10 wrote on May 21 2006, 07:35 am

The second tab is great. thanks a lot clayton

+1 reply
thevintagesoul 10 wrote on May 4 2008, 10:23 pm

well i cant tell you that you made a mistake, but on an interview wtih the band they give clear shot of mike playing and he seems to be playing with longer slides. the second tab is more accurate. but i mean you went to the concert so i cant tell you wrong, either way, this is a good tab, thank you.
and especially thanks for showing whcich was to strum, almost no one does that.

+1 reply
led_zep_1789 111 wrote on December 23 2008, 01:33 am

not to burst claytons bubble but i have the same interview of mike playing the song on vhs and i rewound it and rewound it over and over again just to learn it....and honestly it sounds more clear the way mike does it and it's much more easier to play. study the interview. it's from the Single Video Theory vhs, it's also on youtube but on there they abbreviate it to SVT..so look it up, it was really helpful.

guest
You may want to rate the tab now too:
select rating
Wanna post a correction for this tab? Suggest correction