Oops, an error
Loading. Please wait.

Given To Fly Tab

version 2
version 2

Whole song

Interactive

67,860 views 81 this week
2 commentsread comments
1 2 3 4 5
x 10
add to favorites
launch autoscroll
font size
0
reset
how to read this tab
guitar tuner
×
Best way to learn
"Given To Fly"
Autoscroll
slow
fast
+/-
esc
set tempo
stop
e|-|-----------------9----0-------------------------|---------------------------|
B|-|------------------------10-----------9--7--5-5--|---------------------------|
G|-|------------0--------------0-------0------------|---------------------------|
D|-|------------------------------------------------|---------------------------|
A|-|--0-9/10-10---10---10---------7/9-------7--5-5--|---------------------------|
E|-|------------------------------------------------|---------------------------|
 Mike Intro/Verse

e|-|------------------9-----0----0----------------0--7-------7--------|---------|
B|-|--------------------------10---------9--5----------7-7-9---7-7-9--|---------|
G|-|------------0----------------------0------0-----------------------|---------|
D|-|--------------------------------------------0---------------------|---------|
A|-|--0-9/10-10---10----10---------7/9------5-------------------------|---------|
E|-|------------------------------------------------------------------|---------|


e|-|---------------------------------------------------------------------------|
B|-|---------------------------------------------------------------------------|
G|-|---------------------------------------------------------------------------|
D|-|---------------------------------------------------------------------------|
A|-|---------------------------------------------------------------------------|
E|-|---------------------------------------------------------------------------|
 Stone Tacet

e|-|--7--7-7-7-7-7--7-7-7-7-7-7--|----------------------------------------------|
B|-|--7--7-7-7-7-9--7-7-7-7-7-9--|----------------------------------------------|
G|-|--7--7-7-7-7-7--7-7-7-7-7-7--|----------------------------------------------|
D|-|--0--0-0-0-0-0--0-0-0-0-0-0--|----------------------------------------------|
A|-|-----------------------------|----------------------------------------------|
E|-|-----------------------------|----------------------------------------------|
 Mike                        4x

e|-|--------------------------------|-------------------------------------------|
B|-|--------------3----3-3-3-3-3-3--|-------------------------------------------|
G|-|--4-4-4-4-4---2----2-2-2-2-2-2--|-------------------------------------------|
D|-|--5-5-5-5-5---0----0-0-0-0-0-0--|-------------------------------------------|
A|-|--5-5-5-5-5---------------------|-------------------------------------------|
E|-|--3-3-3-3-3---------------------|-------------------------------------------|
 Stone 3rd and 4th Time

e|-|--0--0--0--0--9--10-9---0---|--7-7-7-7-7-7--7-7-7-7-7-7--|------------------|
B|-|--10-10-10-10-10-10-10--10--|--7-7-7-7-7-9--7-7-7-7-7-9--|------------------|
G|-|--0--0--0--0--0--0--0---0---|--7-7-7-7-7-7--7-7-7-7-7-7--|------------------|
D|-|--0--0--0--0--0--0--0---0---|--0-0-0-0-0-0--0-0-0-0-0-0--|------------------|
A|-|--10-10-10-10-10-10-10--10--|----------------------------|------------------|
E|-|----------------------------|----------------------------|------------------|
 Pre-Chorus Mike

e|-|----------------|--2-2-2--0h2-2-2-2--2-2-2--0h2-2-2-2--|--------------------|
B|-|----------------|--3-3-3-------------3-3-3-------------|--------------------|
G|-|--4-4-4-4--5-4--|--2-2-2-------------2-2-2-------------|--------------------|
D|-|--x-x-x-x--x-x--|--0-0-0-------------0-0-0-------------|--------------------|
A|-|--5-5-5-5--5-5--|--------------------------------------|--------------------|
E|-|--3-3-3-3--3-3--|--------------------------------------|--------------------|
 Stone

e|-|--10---10--10-10-10\--x-x-x-x--10---10--10-10-10-10\--9--7--5--5-5-5--|-----|
B|-|--10---10--10-10-10\--x-x-x-x--10---10--10-10-10-10\--9--7--5--5-5-5--|-----|
G|-|--10---10--10-10-10\--x-x-x-x--10---10--10-10-10-10\--9--7--5--5-5-5--|-----|
D|-|--10---10--10-10-10\--x-x-x-x--10---10--10-10-10-10\--9--7--5--5-5-5--|-----|
A|-|--10---10--10-10-10\--x-x-x-x--10---10--10-10-10-10\--9--7--5--5-5-5--|-----|
E|-|--10---10--10-10-10\--x-x-x-x--10---10--10-10-10-10\--9--7--5--5-5-5--|-----|
 Chorus Mike

e|-|--5-5-5-5--|--3---------|---------------------------------------------------|
B|-|--5-5-5-5--|--3---------|---------------------------------------------------|
G|-|--5-5-5-5--|--3---------|---------------------------------------------------|
D|-|--5-5-5-5--|--3---------|---------------------------------------------------|
A|-|--5-5-5-5--|--3---------|---------------------------------------------------|
E|-|--5-5-5-5--|--3---------|---------------------------------------------------|
               Last Chord

e|-|--------------x-x-x-x----------------------------------|-----------|--------|
B|-|--------------x-x-x-x----------------------------------|-----------|--------|
G|-|--9--9--9--9--x-x-x-x-9--9--9--9\--8--6--4--4-4-4-4-4--|--2--------|--------|
D|-|--10-10-10-10-x-x-x-x-10-10-10-10\-9--7--5--5-5-5-5-5--|--3--------|--------|
A|-|--10-10-10-10-x-x-x-x-10-10-10-10\-9--7--5--5-5-5-5-5--|--3--------|--------|
E|-|--8--8--8--8--x-x-x-x-8--8--8--8\--7--5--3--3-3-3-3-3--|--1--------|--------|
 Stone                                                    Last Chord

e|-|-------------------|--------------------------------------------------------|
B|-|-------------------|--------------------------------------------------------|
G|-|-------------------|--------------------------------------------------------|
D|-|-------------------|--------------------------------------------------------|
A|-|-------------------|--------------------------------------------------------|
E|-|-------------------|--------------------------------------------------------|
  Mike Verse (Above)

e|-|-------------------------------------------------------------|--------------|
B|-|--3-3-3-3-3-3-3-3-3-3-3-3-3-3-3-3-3-3-3-3-3-3-3-3-3-3-3-3-3--|--------------|
G|-|-------------------------------------------------------------|--------------|
D|-|-------------------------------------------------------------|--------------|
A|-|-------------------------------------------------------------|--------------|
E|-|-------------------------------------------------------------|--------------|
  Stone PM (Listen To Cd for Placement)

e|-|------------------------------------------------------|---------------------|
B|-|----------------------------3-3-3-3-3-3--3-3-3-3-3-3--|---------------------|
G|-|--14\12--12\11--11\9--9\7---2-2-2-2-2-2--2-2-2-2-2-2--|---------------------|
D|-|--x--x---x--x---x--x--x-x---0-0-0-0-0-0--0-0-0-0-0-0--|---------------------|
A|-|--12\10--10\9---9\-7--7\5-----------------------------|---------------------|
E|-|------------------------------------------------------|---------------------|
  Stone 2nd Pre-Chorus

e|-|--------------------|----------------------------|--------------------------|
B|-|--------------------|----------------------------|--------------------------|
G|-|--2h4p2p0----0------|----------------------------|--------------------------|
D|-|-----------4---4-0--|--10-10-10-10-10--14-12-10--|--------------------------|
A|-|--------------------|----------------------------|--------------------------|
E|-|--------------------|----------------------------|--------------------------|
 Gtr.3 Last Chorus Fills   3:16

e|-|----------------------------------------|-----------------------------------|
B|-|----------------------------------------|-----------------------------------|
G|-|--------------------------/21-19-17-19--|-----------------------------------|
D|-|--17-17-17-17-17-17-17-17---------------|-----------------------------------|
A|-|----------------------------------------|-----------------------------------|
E|-|----------------------------------------|-----------------------------------|
  3:26

e|-|-----------------|----------------------------------------------------------|
B|-|-----------------|----------------------------------------------------------|
G|-|--9--------------|----------------------------------------------------------|
D|-|--7---5----------|----------------------------------------------------------|
A|-|--0---5----------|----------------------------------------------------------|
E|-|------5----------|----------------------------------------------------------|
 Outro Mike Repeat

e|-|-----------------------------------------|----------------------------|-----|
B|-|-----------------------------------------|----------------------------|-----|
G|-|--16-----------------16----17-16--14-----|--16------------------------|-----|
D|-|-----17-15-17--15h17----17-----------17--|-----17-15-17\12--12\7-7\5--|-----|
A|-|-----------------------------------------|----------------------------|-----|
E|-|-----------------------------------------|----------------------------|-----|
 Stone                                   2x



************************************

| /   Slide up
| h   Hammer-on
| x   Dead note
| \   Slide down
| PM  Palm mute
| p   Pull-off

************************************
Suggest correction
comments
print report bad tab
2 comments total.
+1 reply
led_zep_1789 111 Dec 22, 2008 08:41 PM

i personally think this tab is the most accurate, it is in DADGAD tuning although the intro seems a little empty...

0 reply
jk41 732 Mar 06, 2011 04:50 PM

whoa, not even close

guest
You may want to rate the tab now too:
select rating
Wanna post a correction for this tab? Suggest correction