Oops, an error
Loading. Please wait.

Given To Fly Tab

version 4
version 4

Whole song

Interactive

5,278 views 18 this week
2 commentsread comments
1 2 3 4 5
please rate
add to favorites
launch autoscroll
font size
0
reset
how to read this tab
guitar tuner
Autoscroll
slow
fast
+/-
esc
set tempo
stop
Help us to improve Ultimate-Guitar.com Take our survey!
×
Author
Difficulty
intermediate
----------------------------------------------------------------------------
                           Given to fly-Pearl jam
----------------------------------------------------------------------------
Tabbed by: Joel Keane
Email:
I havent heard the song for ages only remember the riffs, so sorry its not
structured well
Tuning: standard
Intro/verse
finger picked
e|--------------------------------------------------------------------------|
B|----------8-12-8-----------5--3------------8-12-8-----------3-------------|
G|----------0-0--0-0-------0------0----------0-0--0-0-------0---0-----------|
D|-------------------0--------------0-----------------0-----------0---------|
A|--0h9h10-------------7/9---7--5-----0h9h10------------7/9---5-----0-------|
E|--------------------------------------------------------------------------|

next riff                               then second time
e|-5---0-2----5---0-2------------------5---0-2--5p0--0-2--5-000-2-5p0-00-0-2-|
B|---0----------0--------back to verse---0---------0--------00--------00-----|
G|--------------------------------------------------0------------------------|
D|-0---0-0----0---0-0------------------0---0-0--0----0-0--0---0-0-0------0-0-|
A|---------------------------------------------------------------------------|
E|---------------------------------------------------------------------------|

pre chorus
e|-7-77-8-7-777-7-77-8-7-777---0-2-0-222-22-0-2-0-222-22--7-77-8-7-777-7-77-|
B|-8-88-8-8-888-8-88-8-8-888---3-3-3-333-33-3-3-3-333-33--8-88-8-8-888-8-88-|
G|-----------------------------2-2-2-222-22-2-2-2-222-----------------------|
D|--------------------------------------------------------------------------|
A|--------------------------------------------------------------------------|
E|--------------------------------------------------------------------------|

                                       chorus
e|-8-7-777---0-2-0-222-22-0-2-0-222--------------------------------------3--|
B|-8-8-888---3-3-3-333-33-3-3-3-333-33-----------------------------------3--|
G|-----------2-2-2-222-22-2-2-2-222-22-----------------------------------0--|
D|----------------------------------00-----------------------------------0--|
A|-------------------------------------1010-10-1010\--1010-10-1010-9-7-5-2--|
E|-------------------------------------8-8--8--8-8-\--8-8--8--8-8--7-5-3-3--|

e|-3333-3-3-3333-------------------------------------3-3333-3--3------------|
B|-3333-3-3-3333-------------------------------------3-3333-3--3------------|
G|-0000-0-0-0000-------------------------------------0-0000-0--0------------|
D|-0000-0-0-0000------------------1010-10-1010-9-7-5-0-0000-0--0------------|
A|-2222-2-2-2222---1010-10-1010\---------------------2-2222-2--2------------|
E|-3333-3-3-3333---8-8--8--8-8-\--8-8--8--8-8--7-5-3-3-3333-3--3------------|


the only the other riff is the outro
e|-7-----------7---8-7------------------7------------------------------------|
B|---8-6-8-6-8---8-----8-6- x3------------8-6-6h8--------------------------0-|
G|---------------------------i-think--------------7-7\0-0h2-0-0h2-0h2-0-0h20-|
D|------------------------------------------------------0---0-0---0---0-0--0-|
A|---------------------------------------------------------------------------|
E|---------------------------------------------------------------------------|

************************************

| /   slide up
| \   slide down
| h   hammer-on
| p   pull-off
| ~   vibrato
| +   harmonic
| x   Mute note
| b   Bend
| pb  Pre-bend
| br  Bend release
| pbr Pre-bend release
| brb Bend release bend

************************************
Suggest correction
Give kudos to tab author, rate the tab!
1 2 3 4 5
comments
print report bad tab
2 comments total.
0 reply
darknis 74 wrote on January 10 2015, 06:21 pm

nice tab, probably the most accurate

0 reply
joeman272 103 wrote on April 10 2015, 09:15 pm

best one on the site. Good job

guest
You may want to rate the tab now too:
select rating
Please do not post tabs as comments. Select "correction" instead!