Oops, an error
Loading. Please wait.

Hail Hail Bass

version 1
version 1

Whole song

Interactive

2,873 views 9 this week
1 commentread comment
1 2 3 4 5
x 3
add to favorites
launch autoscroll
font size
0
reset
guitar tuner
×
Best way to learn
"Hail Hail"
Autoscroll
slow
fast
+/-
esc
set tempo
stop
PEARL JAM "HAIL HAIL" -BASS TAB
--------------------

Tune normal  e a d g

Intro/choruse: 
|---------------------------------------|
|---------------------------------------|
|-5-55-8-88-4-44-5-5----353---3-33-1-11-|
|-------------------33-5---33-----------|   x2

verse
|------------------------------------------------------------|
|------------------------------------------------------------|
|-----------------1-1----------------1-1-----1-1-1-1-1-1-----|
|-3-3-3-3-3-3-3-3----3-3-3-3-3-3-3-3-----3-3-------------3-3-|

|--------------------|
|--------------------|
|-1-1-1-1-1-1-1-1-3-3|
|--------------------|

|------------------------------------------------------------|
|------------------------------------------------------------|
|-----------------1-1----------------1-1-----1-1-1-1-1-1-----|
|-3-3-3-3-3-3-3-3----3-3-3-3-3-3-3-3-----3-3-------------3-3-|

|--------------------|
|--------------------|
|-1-1-1-1-1-1-1-1-1-1|
|--------------------|  

chorus
|---------------------------------------|
|---------------------------------------|
|-5-55-8-88-4-44-5-5----353---3-33-1-11-|
|-------------------33-5---33-----------|   x2

second  verse ( same as first)

second chorus
|---------------------------------------|
|---------------------------------------|
|-5-55-8-88-4-44-5-5----353---3-33-1-11-|
|-------------------33-5---33-----------|   x2

|---------------------|
|---------------------|
|-5-55-7-77-1-11------|
|----------------3-33-| x3



Interlude:
|--------------|-------------|---------------------|
|-7-5-7---5----|-7-5-7---5---|-7-5-7---------------|
|-------7---7--|-------7---7-|-------7-5-----------|
|--------------|-------------|-----------5-3-3-3-3-|

|------------------------------------------------------------|
|------------------------------------------------------------|
|-----------------1-1----------------1-1-----1-1-1-1-1-1-----|
|-3-3-3-3-3-3-3-3----3-3-3-3-3-3-3-3-----3-3-------------3-3-|

|---------------------------------------|
|---------------------------------------|
|-5-55-8-88-4-44-5-5----353---3-33-1-11-|
|-------------------33-5---33-----------|   x2

|---------------------|
|---------------------|
|-5-55-7-77-1-11------|
|----------------3-33-| x2

|--------------------------|
|--------------------------|
|-5-55-7-77-1-11-9-9-10-11-|
|--------------------------|



Tabbed by Mark Linwood


Hint suggesstions or comments to (Rlinwood@powerup.com.au)
I will reply 
to all emails

p=pulloff
h=hammeron
/=slide

Suggest correction
Give kudos to tab author, rate the tab!
1 2 3 4 5
comments
print report bad tab
1 comment total.
0 reply
JayRich88 10 Sep 22, 2009 04:04 PM

The chorus is too simple in this tab, and the interlude is wrong.

guest
You may want to rate the tab now too:
select rating
Wanna post a correction for this tab? Suggest correction