Oops, an error
Loading. Please wait.

Hail Hail Tab

version 2
version 2

Whole song

Interactive

22,400 views 39 this week
no commentswrite comment
1 2 3 4 5
x 12
add to favorites
launch autoscroll
font size
0
reset
how to read this tab
guitar tuner
×
Best way to learn
"Hail Hail"
Autoscroll
slow
fast
+/-
esc
set tempo
stop
Author/Artist: Pearl Jam
Title: Hail, Hail
Album: No Code
Transcribed by: Evan Cowan
Email: evan@giventowail.com

[Intro]                                                     Repeat
e|----------------------------------------------------------------|----------|
B|-3--3-3-1--1-1-2--2-2-3--3-3------------------------------------|----------|
G|-2--2-2-2--2-2-2--2-2-3--3-3---------------5--5-5---------------|----------|
D|-0--0-0-3--3-3-2--2-2-3--3-3-5--5-5-7--7-7-5--5-5-8--8-8--8-8-8-|-8--8-8---|
A|---------------4--4-4-5--5-5-5--5-5-7--7-7-7--7-7-8--8-8--8-8-8-|-8--8-8---|
E|-----------------------------3--3-3-5--5-5--------6--6-6--6-6-6-|-6--6-6---|

[Verse]
e|----------|-----------------------------------------------------------------|
B|----------|-----------------------------------------------------------------|
G|----------|-----------------------------------------------------------------|
D|-8-8-8----|-5--5-5-5-5-5-5-5-5-5-5-5-8-8-8-5--5-5-5-5-5-5-5-5-5-5-5-8-8-8---|
A|-8-8-8----|-5--5-5-5-5-5-5-5-5-5-5-5-8-8-8-5--5-5-5-5-5-5-5-5-5-5-5-8-8-8---|
E|-6-6-6----|-3--3-3-3-3-3-3-3-3-3-3-3-6-6-6-3--3-3-3-3-3-3-3-3-3-3-3-6-6-6---|
              p.m.----------------|        p.m.---------------------------|

                                                         With Fill 1
e|----------------------------------------------------------------|-----------|
B|----------------------------------------------------------------|-----------|
G|----------------------------------------------------------------|-----------|
D|-5--5-5-8--8-8--8-8-8-8-5-5-5-8--8-8-8-8-8-8-8-8-8-8-8-10-10-10-|-----------|
A|-5--5-5-8--8-8--8-8-8-8-5-5-5-8--8-8-8-8-8-8-8-8-8-8-8-10-10-10-|-----------|
E|-3--3-3-6--6-6--6-6-6-6-3-3-3-6--6-6-6-6-6-6-6-6-6-6-6--8--8--8-|-----------|

 Fill 1 (G2)  hand scrape
e|------------------------|--------------------------------|------------------|
B|------------------------|--------------------------------|------------------|
G|-/17--/12---------------|--------------------------------|------------------|
D|-/17--/12---x/-x\-------|-5--5-5-5-5-5-5-5-5-5-5-5-8-8-8-|------------------|
A|------------x/-x\-------|-5--5-5-5-5-5-5-5-5-5-5-5-8-8-8-|------------------|
E|------------x/-x\-------|-3--3-3-3-3-3-3-3-3-3-3-3-6-6-6-|------------------|

e|-------------------------------------------------------------|--------------|
B|-------------------------------------------------------------|--------------|
G|-------------------------------------------------------------|--------------|
D|-5--5-5-5-5-5-5-5-5-5-5-5-8-8-8-5--5-5-8--8-8--8-8-8-8-5-5-5-|--------------|
A|-5--5-5-5-5-5-5-5-5-5-5-5-8-8-8-5--5-5-8--8-8--8-8-8-8-5-5-5-|--------------|
E|-3--3-3-3-3-3-3-3-3-3-3-3-6-6-6-3--3-3-6--6-6--6-6-6-6-3-3-3-|--------------|

                             With Fill 2  Fill 2 (G2)
e|--------------------------------|-----|------|------------------------------|
B|--------------------------------|-----|-1--1-|------------------------------|
G|--------------------------------|-----|-2--2-|------------------------------|
D|-8--8-8-8-8-8-8-8-8-8-8-8-8-8-8-|-----|------|------------------------------|
A|-8--8-8-8-8-8-8-8-8-8-8-8-8-8-8-|-----|------|------------------------------|
E|-6--6-6-6-6-6-6-6-6-6-6-6-6-6-6-|-----|------|------------------------------|

[Chorus]
e|---------------------------------------------------------|------------------|
B|-3--3-3-1--1-1-2--2-2-3--3-3-----------------------------|------------------|
G|-2--2-2-2--2-2-2--2-2-3--3-3---------------5--5-5--------|------------------|
D|-0--0-0-3--3-3-2--2-2-3--3-3-5--5-5-7--7-7-5--5-5-8--8-8-|------------------|
A|---------------4--4-4-5--5-5-5--5-5-7--7-7-7--7-7-8--8-8-|------------------|
E|-----------------------------3--3-3-5--5-5--------6--6-6-|------------------|

e|-----------------------------------------------------------------------|----|
B|-3--3-3-1--1-1-2--2-2-3--3-3-------------------------------------------|----|
G|-2--2-2-2--2-2-2--2-2-3--3-3---------------5--5-5----------------------|----|
D|-0--0-0-3--3-3-2--2-2-3--3-3-5--5-5-7--7-7-5--5-5-8--8-8--8-8-8-8--8-8-|----|
A|---------------4--4-4-5--5-5-5--5-5-7--7-7-7--7-7-8--8-8--8-8-8-8--8-8-|----|
E|-----------------------------3--3-3-5--5-5--------6--6-6--6-6-6-6--6-6-|----|

         [Verse 2]
e|-------|-----------------------------------------------------------------|--|
B|-------|-----------------------------------------------------------------|--|
G|-------|-----------------------------------------------------------------|--|
D|-8-8-8-|-5--5-5-5-5-5-5-5-5-5-5-5-8-8-8-5--5-5-5-5-5-5-5-5-5-5-5-8-8-8---|--|
A|-8-8-8-|-5--5-5-5-5-5-5-5-5-5-5-5-8-8-8-5--5-5-5-5-5-5-5-5-5-5-5-8-8-8---|--|
E|-6-6-6-|-3--3-3-3-3-3-3-3-3-3-3-3-6-6-6-3--3-3-3-3-3-3-3-3-3-3-3-6-6-6---|--|

                                                                  With Fill 1
e|---------------------------------------------------------------|------------|
B|---------------------------------------------------------------|------------|
G|---------------------------------------------------------------|------------|
D|-5--5-5-8--8-8--8-8-8-8-5-5-5-8--8-8--8-8-8-8-8-8-8-8-10-10-10-|------------|
A|-5--5-5-8--8-8--8-8-8-8-5-5-5-8--8-8--8-8-8-8-8-8-8-8-10-10-10-|------------|
E|-3--3-3-6--6-6--6-6-6-6-3-3-3-6--6-6--6-6-6-6-6-6-6-6--8--8--8-|------------|

e|---------------------------------------------------------------|------------|
B|---------------------------------------------------------------|------------|
G|---------------------------------------------------------------|------------|
D|-5--5-5-5-5-5-5-5-5-5-5-5-8-8-8-5--5-5-5-5-5-5-5-5-5-5-5-8-8-8-|------------|
A|-5--5-5-5-5-5-5-5-5-5-5-5-8-8-8-5--5-5-5-5-5-5-5-5-5-5-5-8-8-8-|------------|
E|-3--3-3-3-3-3-3-3-3-3-3-3-6-6-6-3--3-3-3-3-3-3-3-3-3-3-3-6-6-6-|------------|

e|-----------------------------------------------------------|----------------|
B|-----------------------------------------------------------|----------------|
G|-----------------------------------------------------------|----------------|
D|-5--5-5-8--8-8--8-8-8-8-5-5-5-8--8-8-8-8-8-8-8-8-8-8-8-8-8-|----------------|
A|-5--5-5-8--8-8--8-8-8-8-5-5-5-8--8-8-8-8-8-8-8-8-8-8-8-8-8-|----------------|
E|-3--3-3-6--6-6--6-6-6-6-3-3-3-6--6-6-6-6-6-6-6-6-6-6-6-6-6-|----------------|

[Chorus]
e|---------------------------------------------------------|------------------|
B|-3--3-3-1--1-1-2--2-2-3--3-3-----------------------------|------------------|
G|-2--2-2-2--2-2-2--2-2-3--3-3---------------5--5-5--------|------------------|
D|-0--0-0-3--3-3-2--2-2-3--3-3-5--5-5-7--7-7-5--5-5-8--8-8-|------------------|
A|---------------4--4-4-5--5-5-5--5-5-7--7-7-7--7-7-8--8-8-|------------------|
E|-----------------------------3--3-3-5--5-5--------6--6-6-|------------------|

e|---------------------------------------------------------------------------|
B|-3--3-3-1--1-1-2--2-2-3--3-3-----------------------------------------------|
G|-2--2-2-2--2-2-2--2-2-3--3-3---------------5--5-5--------------------------|
D|-0--0-0-3--3-3-2--2-2-3--3-3-5--5-5-7--7-7-5--5-5-8--8--8-8-8-8--8-8-8-8-8-|
A|---------------4--4-4-5--5-5-5--5-5-7--7-7-7--7-7-8--8--8-8-8-8--8-8-8-8-8-|
E|-----------------------------3--3-3-5--5-5--------6--6--6-6-6-6--6-6-6-6-6-|

[Bridge], G1-play simile 2x        Strum for awhile
e|---------------3-------------3-|--3---3---3---3--|--------------------------|
B|-3----2----3---3--3---2---3--3-|--3---3---3---3--|--------------------------|
G|-2----2----3---0--2---2---3--0-|--0---0---0---0--|--------------------------|
D|-0----2----3---0--0---2---3--0-|--0---0---0---0--|--------------------------|
A|------4----5---x------4---5--x-|--2---2---2---2--|--------------------------|
E|---------------3-------------3-|--3---3---3---3--|--------------------------|

e|-----------------------------------------|----------------------------------|
B|-----------------------------------------|----------------------------------|
G|-----------------------------------------|----------------------------------|
D|-8--8--5-------8-8--5--5-5-8--5-5-8----/-|----------------------------------|
A|-8--8--5-------8-8--5--5-5-8--5-5-8----/-|----------------------------------|
E|-6--6--3-------6-6--3--3-3-6--3-3-6----/-|----------------------------------|
 Then...

[Bridge], G2  Repeat simile till Chorus
e|----5-----|-5-----2-3----5-----2-3---|--------------------------------------|
B|------3---|---3------------3---------|--------------------------------------|
G|-0------0-|-----0-----0------0-----0-|--------------------------------------|
D|----------|--------------------------|--------------------------------------|
A|----------|--------------------------|--------------------------------------|
E|----------|--------------------------|--------------------------------------|

[Chorus]                                                 2x
e|---------------------------------------------------------|------------------|
B|-3--3-3-1--1-1-2--2-2-3--3-3-----------------------------|------------------|
G|-2--2-2-2--2-2-2--2-2-3--3-3---------------5--5-5--------|------------------|
D|-0--0-0-3--3-3-2--2-2-3--3-3-5--5-5-7--7-7-5--5-5-8--8-8-|------------------|
A|---------------4--4-4-5--5-5-5--5-5-7--7-7-7--7-7-8--8-8-|------------------|
E|-----------------------------3--3-3-5--5-5--------6--6-6-|------------------|

 (G2 enter 2nd x)3x              Strum for 10 bars
e|---------------3-|---------------3---3---3---3--|---------------------------|
B|-3----2----3---3-|-3----2----3---3---3---3---3--|---------------------------|
G|-2----2----3---0-|-2----2----3---0---0---0---0--|---------------------------|
D|-0----2----3---0-|-0----2----3---0---0---0---0--|---------------------------|
A|------4----5---x-|------4----5---2---2---2---2--|---------------------------|
E|---------------3-|---------------3---3---3---3--|---------------------------|

e|--3--3---3----3--3---3-3---3--3-3--3-3--3--|-5-----2-3---5-----2-3---|------|
B|-----------------------------------3-3-----|---3-----------3---------|------|
G|-------------------------------------------|-----0-----0-----0-----0-|------|
D|-------------------------------------------|-------------------------|------|
A|-------------------------------------------|-------------------------|------|
E|-------------------------------------------|-------------------------|------|
   p.m.   p.m.---|    p.m.-|    p.m.--------| G2                 play till end


************************************

| /    Slide up
| x    Dead note
| p.m. Palm Mute

************************************
Suggest correction
comments
print report bad tab
guest
You may want to rate the tab now too:
select rating
Wanna post a correction for this tab? Suggest correction