Oops, an error
Loading. Please wait.

Indifference tab

version 1
version 1

Whole song

Interactive

40,158 views 45 this week
1 commentread comment
1 2 3 4 5
x 8
add to favorites
×
Save as Personal and add changes to this tab that will be seen only by you. Learn more ›
×
You can save this tab as Personal to edit and correct it or add notes. All changes will be seen only by you. Learn more »
launch autoscroll
font size
0
reset
how to read this tab
guitar tuner
edit
Autoscroll
slow
fast
+/-
esc
set tempo
stop
Author
Unregistered
(that riff that keeps appears is the following)
e|-------------------------------------------|
B|-------------------------------------------|
G|------9---7--------------------------------|
D|--------------9---7------------------------|
A|----------------------9-10-9---7-----------|
E|-------------------------------------------|

[Bass line]
G|---------------------------------------------------------------------|
D|---------------------------------------------------------------------|
E|---0h7----------0p5--------------------------------------------------|
A|---------------------------------------------------------------------|

(Harm tunes)
e|---------------------------------------------------------------------|
B|---------------------------------------------------------------------|
G|---------------------------------------------------------------------|
D|--------7-------------12---------------------------------------------|
A|-----------7--------------12-----------------------------------------|
E|---------------------------------------------------------------------|

(fill in 1)
e|---12--10------------------------------------------------------------|
B|------------12--10---7--8--(8)/10--8---------------------------------|
G|---------------------------------------------------------------------|
D|---------------------------------------------------------------------|
A|---------------------------------------------------------------------|
E|---------------------------------------------------------------------|

(fill in 2)
e|---12p10--------------(12)/15--12p10---------------------------------|
B|---------------12------------------------12--------------------------|
G|---------------------------------------------------------------------|
D|---------------------------------------------------------------------|
A|---------------------------------------------------------------------|
E|---------------------------------------------------------------------|

e|---12p10--------------(12)/15--12p10-----------10-10-12--------------|
B|---------------12------------------------12--------------------------|
G|---------------------------------------------------------------------|
D|---------------------------------------------------------------------|
A|---------------------------------------------------------------------|
E|---------------------------------------------------------------------|

e|---12p10--------------(12)/15--12p10---------------------------------|
B|---------------12------------------------12--------------------------|
G|---------------------------------------------------------------------|
D|---------------------------------------------------------------------|
A|---------------------------------------------------------------------|
E|---------------------------------------------------------------------|

e|---12p10--------------(12)/15--12p10----------10-10-12--12b----------|
B|---------------12------------------------12--------------------------|
G|---------------------------------------------------------------------|
D|---------------------------------------------------------------------|
A|---------------------------------------------------------------------|
E|---------------------------------------------------------------------|


2. Version of the song

[main riff]
G|-----(5)---------(7)-----|
D|-------(7)---------(7)---|
E|--7-----------5----------|
A|-7-----------5-----------|

  (There, that was easy. Then after the first verse, the guitar plays)
e|-------------------------------------------------|
B|17---15------------------------------------------|
G|---------16---14---------------------------------|
D|------------------16-17/19--17-------------------|
A|-------------------------------------------------|
E|-------------------------------------------------|

(It's either that, or)
e|12---10------------------------------------------|
B|---------12---10---------------------------------|
G|------------------11-12/14---12------------------|
D|-------------------------------------------------|
A|-------------------------------------------------|
E|-------------------------------------------------|

[Chorus 2]
|----(12)--------(7)---------(5)---------(5)------|
|------(12)--------(7)---------(7)---------(7)----|
|--10------\\\5------------7-----------7----------|
|10----------------------7-----------7------------|

  (The other guitar riff which crops up later is)
e|---------15-------------------------|
B|17p15-------------17p15-------------|
G|------16-------16-------16-16----16-| 
D|------------------------------------|
A|------------------------------------|
E|------------------------------------|

e|------------------------------------|
B|15---17---19b20b19---15--17---------|
G|------------------------------------|
D|------------------------------------|
A|------------------------------------|
E|------------------------------------|


************************************

| h    Hammer-on
| p    Pull-off
| b    Bend
| (n)  Ghost note
| /    Slide up
| \    Slide down

************************************

            
            
Suggest correction
Creating personal tab
Creating personal tab
You can edit any tab online and save it as your Personal.

You can edit, replace or remove any tab part or add personal notes – all changes will be seen only by you.

Personal tabs can be accessed anytime from any device, even offline.
Learn more »
comments
print report bad tab
1 comment total.
0 reply
stef123 30 Jun 13, 2010 08:26 AM

Good tab. This song is beautiful.

guest
Wanna post a correction for this tab? Suggest correction