Oops, an error
Loading. Please wait.
We have Chord Pro version of Jeremy.
It's the closest thing you can get to the original song and it has interactive parts. Check out the tab »
×
152,876 views 369 this week
1 commentread comment
1 2 3 4 5
x 7
add to favorites
launch autoscroll
font size
0
reset
how to read this tab
guitar tuner
backing track
0:00
0:00
Autoscroll
slow
fast
+/-
esc
set tempo
stop
Author
Tuning: Standard Tuning (EADBGE)

This is my first tab so bear with me. Can't say 100% if it's correct but it's a way to
play Jeremy acoustically with just one guitar and it sounds good. I didn't put the rhythm
in there, you will have to listen to the song for it but if you look at the notes in the
verse I just put the changes in there. You should be able to follow along. I recommend
playing the song kind of dirty in the sense that you should follow the notes but if you
hit some open strings in the verses it just gives it a more full sound. You'll see what I
mean when you play it. Enjoy!


[Intro]
e|--------------------------------------------------------------------|
B|--------------------------------------------------------------------|
G|--------------------------+7------------------------+7--------------|
D|-------------7-----5--+7------------------7-----5--------+7---------|
A|-0--5--7--0-----0-------------0--5--7--0-----0----------------------|
E|--------------------------------------------------------------------|

e|--------------------------------------------------------------------|
B|--------------------------------------------------------------------|
G|---------------------------+7---------------------------------------|
D|-------------7-----5---+7------------------7-----5555555------------|
A|-0--5--7--0-----0--------------0--5--7--0-----0---------------------|
E|--------------------------------------------------------------------|


[Verse]

(1st half)
                At Home    Drawing Pictures       Of Mountain Tops
e|-------------------------------------------0----0-------------------|
B|-----------------------0-------------------10---8-------------------|
G|-------------0---------7-------------------9----7-------------------|
D|-------------7---------5-------------------7----5-------------------|
A|-0--5--7--0--0------------------------------------------------------|
E|--------------------------------------------------------------------|


[Verse]

(2nd Half)
                          Daddy didn't           give affection
e|--------------------------------------------------------------------|
B|--------------10--------8----------------------0--------------------|
G|--------------9---------7----------------------7--------------------|
D|--------------7---------5----------------------4--------------------|
A|-0--5--7--0------------------------------------0--------------------|
E|--------------------------------------------------------------------|


[Chorus]

For the A chord in the chorus do hammers and pull offs with your 4th finger on the
B string to get the effect of the little lead part in there.


   Jeremy spoke in    class               Today
   Dm               F    E    F             A
e|-1----------------1---------1-------------0-----------------------|
B|-3----------------1---------1------------h2-----------------------|
G|-2----------------2----1----2-------------2-----------------------|
D|-0----------------3----2----3-------------2-----------------------|
A|-----------------------2----3-------------0-----------------------|
E|-----------------------0----1-------------x-----------------------|

After the 2nd chorus when he first starts with "woo woo woo" (continuing on to) "trying
to forget this" play the first part of the verse like this

e|--------------------------------------------------------------------|
B|-------------0----0------------------0------------------------------|
G|-------------7----7------------------7----7-------------------------|
D|-------------0----5------------------0----5-------------------------|
A|-0--5--7--0-------0-----0--5--7--0--------0-------------------------|
E|--------------------------------------------------------------------|

Then when he gets to "board" Play F - G - A  until he repeats the "Jeremy spoke in" part.
When he does that do an F and G like this


F                G         F                 G          F
Jeremy spoke in  spoke in  Jeremy spoke in,  spoke in   Jeremy spoke in
G        A
class    today


Then repeat F - G - A  the rest of the song
   
e|-1----3----0--------------------------------------------------------|
B|-1----3---h2--------------------------------------------------------|
G|-2----0----2--------------------------------------------------------|
D|-3----0----2--------------------------------------------------------|
A|------2----0--------------------------------------------------------|
E|------3-------------------------------------------------------------|

The Final Riff and the end

e|--------------------------------------------------------------------|
B|----------------7-----------3--------5------------------------------|
G|-------8-----7-----7-----4--------5-----5---------------------------|
D|----9---------------------------------------------------------------|
A|-0--------0-----------0--------0------------------------------------|
E|--------------------------------------------------------------------|

e|--------------------------------------------------------------------|
B|-------0--------1-----------0---------1-----------------------------|
G|----0--------2-----2-----0---------2-----2--------------------------|
D|--------------------------------------------------------------------|
A|-0--------0-----------0---------0-----------------------------------|
E|--------------------------------------------------------------------|

e|--------------------------------------------------------------------|
B|----------------7-----------3--------5------------------------------|
G|-------8-----7-----7-----4--------5-----5---------------------------|
D|----9---------------------------------------------------------------|
A|-0--------0-----------0--------0------------------------------------|
E|--------------------------------------------------------------------|

e|--------------------------------------------------------------------|
B|-------0--------1-----------0---------------------------------------|
G|----0--------2-----2-----0----------------+7------------------------|
D|--------------------------------------+7----------------------------|
A|-0--------0-----------0---------0-----------------------------------|
E|--------------------------------------------------------------------|

***********************

| h  hammer-on
| +  harmonic
| x  Mute note

***********************
 
Suggest correction
comments
print report bad tab
1 comment total.
+1 reply
ctaylorhunt 10 Nov 18, 2013 07:28 AM

Thanks for tab! Also, there is a slight correction to make.

On the Final Riff (both parts), the G string should be on the 9th fret and the B string should be on the 8th fret. Here's the correction.

e|--------------------------------------------------------------------|
B|--------8-------7-----------3--------5------------------------------|
G|-----9-------7-----7-----4--------5-----5---------------------------|
D|--------------------------------------------------------------------|
A|-0--------0-----------0--------0------------------------------------|
E|--------------------------------------------------------------------|

guest
You may want to rate the tab now too:
select rating
Wanna post a correction for this tab? Suggest correction