Oops, an error
Loading. Please wait.

Leatherman Bass Tab

version 1
version 1

Whole song

Interactive

248 views 1 this week
no commentswrite comment
1 2 3 4 5
3 more votes to show rating
add to favorites
launch autoscroll
font size
0
reset
guitar tuner
×
Best way to learn
"Leatherman"
Autoscroll
slow
fast
+/-
esc
set tempo
stop
Leatherman
Pearl Jam
Tabbed by Nick Key (nkey@ionet.net)

First Verse:

Fig. 1 4x
|-----------------------12-10-12-10----|
|----12-10-12-12--------------------12-|
|----------------10--10----------------| 
|-10-----------------------------------|

|----------------------------| 
|----------------------------| 
|-0--3-----------------------| 
|-------3--7--3--5-5-5-5-5-5-|

Pre-chorus: 

|----------------------------------------------------------|
|----------------------------------------------------------|
|-------10h12-12-12--10-----8h10-10-10--------10h12-12-12--| 
|-10-10-----------------8-8-------------10-10--------------|

|----------------------------------| 
|----------------------------------| 
|----------------------------------| 
|-8-8-8-8-8-8-8-8-8-8-8-8-8-10-10--| 

Chorus
 3x
|-------------------------------------------------|
|-------------------------------------------------|
|-------10h12-12-12-12-12-------8h10-10-10-10-10--| 
|-10-10---------------------8-8-------------------|

|---------------------------------------------|
|---------------------------------------------|
|-------10h12-12-12-12-12---------------------| 
|-10-10---------------------8-8-8-8-8-8-10-10-|

Post-Chorus:

|------------------------------|
|------------------------------|
|------8-7---------------------| 
|--8-7-----8-3--5-5-5-5-5-5----|

Play verse and then play pre-chorus like this:

|--------------------------------------------------------|
|--------------------------------------------------------|
|----10-8h10-8-10--8---8-8h10-8-10--10----10-8h10-8-10---| 
|-10-----------------8-----------------10----------------|

|----------------------------------| 
|----------------------------------| 
|----------------------------------| 
|-8-8-8-8-8-8-8-8-8-8-8-8-8-10-10--| 

2nd Chorus:
 4x
|--------------------------------------|
|--------------------------------------|
|----10-8h10-8-10--8---8-8h10-8-10--10-| 
|-10-----------------8-----------------|

Then:

|------------------------------------|
|------------------------------------|
|----10-8h10-8-10--------------------| 
|-10--------------//-1-1-1-1-1-1-1-1-|

Bridge:
 3x
|------------------------------------|
|------------------------------------|
|------------------------------------| 
|-3-3-3-3-3-3-3-3--1-1-1-1-1-1-1-1---|

Then:
|------------------|
|------------------|
|------------------| 
|-3-3-3-3-3-3-3-3--|

|----------------------------------------|
|----------------------------------------|
|----10-8h10-8-10--8---8-8h10-8-10--10---|
|-10-----------------8-------------------|

Play the Bridge once, then:

|--------------------|
|--------------------|
|--------------------| 
|-3-3-3-3-3-3-3-3/7--|
Suggest correction
Give kudos to tab author, rate the tab!
1 2 3 4 5
comments
print report bad tab
guest
You may want to rate the tab now too:
select rating
Wanna post a correction for this tab? Suggest correction