Oops, an error
Loading. Please wait.

Life Wasted tab

version 1
version 1

Whole song

Interactive

30,815 views 33 this week
9 commentsread comments
1 2 3 4 5
x 23
add to favorites
×
Save as Personal and add changes to this tab that will be seen only by you. Learn more ›
×
You can save this tab as Personal to edit and correct it or add notes. All changes will be seen only by you. Learn more »
launch autoscroll
font size
0
reset
how to read this tab
guitar tuner
backing track
0:00
0:00
edit
Autoscroll
slow
fast
+/-
esc
set tempo
stop
Author
-------------------------------------------------------------------------
                             Life Wasted – Pearl Jam
-------------------------------------------------------------------------
Tabbed by: Lanno
Date Tabbed: 18th May 2006

No one else has done this, so here you go, enjoy:

Tuning: Standard

Intro/Verse
e|----------------------------------|   Repeat 2x for Intro
B|----------------------------------|
G|-11-------------9-----------------|
D|-11--11-11-11---9--9-9-9----------|   Repeat 4x for Verse
A|-9---11-11-11---7--9-9-9----------|
E|-----9--9--9-------7-7-7----------|

Pre-Chorus
e|----------------------|---------------------|-9---7-|-9----9---9|
B|----------------------|---------------------|-9---7-|-9----9---9|
G|----------------------|---------------------|-9---8-|-9----9---9|
D|----------------------|---------------------|-11--9-|-11---11-11|  x2
A|--4--4-2-4-2--4-2-4-2-|-4--2--4-2-4-2--4-2--|-11--9-|-11---11-11|
E|--2--2-0-2-0--2-0-2-0-|-2--4--2-0-2-0--2-0--|-9---7-|-9----9---9|

Chorus
e|-------------------------------|
B|-------------------------------|
G|-11----------------------------|
D|-11-11-11-11--x3--9-9-9-9------|  x3
A|-9--11-11-11------9-9-9-9------|
E|----9--9--9-------7-7-7-7------|

Pre-Chorus

1st  Solo
e|---------------------------------|----------------------------|
B|---------------------------------|--12p9----12p9----9--11—9~~-|
G|--11b13b11-9-11-9------11p9----9-|-------11------11-----------|
D|-------------------11-------11---|----------------------------|
A|---------------------------------|----------------------------|
E|---------------------------------|----------------------------|

e|--14p12-14-12b14--------------|--------------------|
B|------------------14-12-14----|--------------------|
G|---------------------------13~|-11-13-11-9----9-11-|
D|------------------------------|------------11------|
A|------------------------------|--------------------|
E|------------------------------|--------------------|

e|--------------------------9~~----|
B|--12p9----9-------9---9---9~~----|
G|-------11---11-9--11b-11---------|
D|---------------------------------|
A|---------------------------------|
E|---------------------------------|

Verse


Interlude (I’m not too sure about this part)
e|--9----7-|
B|--9----7-|  I think they use these chords, so just mess around with them
G|--9----8-|  until it sounds right. While guitar 2 does some lead
D|--11---9-|  stuff, over C#, with Delay or Reverb.
A|--11---9-|
E|--9----7-|

Chorus x2

Then Guitar 1 plays Intro Riff over and over until the end.
Guitar 2 solos until the end, over C#. I’m not even going to try tabbing it, just 
or figure it out yourselves.

The end fades out.


| /  slide up
|   slide down
| b  bend (eg. 9b11b9, means bend on fret 9 to 11 and back down to 9)
| h  hammer-on
| p  pull-off
| ~  vibrato
| +  harmonic
| x  Mute note
=========================================================================

            
            
Suggest correction
Creating personal tab
Creating personal tab
You can edit any tab online and save it as your Personal.

You can edit, replace or remove any tab part or add personal notes – all changes will be seen only by you.

Personal tabs can be accessed anytime from any device, even offline.
Learn more »
comments
print report bad tab
9 comments total. Showing first comments.
-2 reply
.:LoCo:. 31 May 23, 2006 09:37 AM

Intro/Verse
e|----------------------------------|
B|----------------------------------|
G|-11-------------9-----------------|
D|-11-------------9-----------------|
A|-9----9--9--9---7---7-7-7---------|
D|----x-9--9--9-----x-7-7-7---------|

Pre-Chorus
e|----------------------|---------------------|
B|----------------------|---------------------|
G|----------------------|---------------------|
D|----------------------|---------------------|
A|--2--2-0-2-0--2-0-2-0-|-2--2--2-0-2-0--2-0--|
D|--2--2-0-2-0--2-0-2-0-|-2--2--2-0-2-0--2-0--|

i watched the video & this is what it looked liked^

Pearl Jam Rule!!

-1 reply
icykyle 10 Jul 05, 2006 08:01 AM

wrong pitch make lower watch VH1's story tellers you'll see

0 reply
cougartraining 10 Nov 15, 2006 11:24 AM

This tab is wrong, Stone plays the main riffs (guitar 1) with a capo on the 4th fret, leaving the 6th string open; strings 1-5 are clamped from the bottom of the fretboard. Check out version 2, somewhat accurate, just a couple wrong chords. Mike plays with no capo using full bar chords most the song, other than soloing of course. If you watch the AOL In-Studio video, you will see the correct version. This was recorded the day before their self titled album was released.

guest
You may want to rate the tab now too:
select rating
Wanna post a correction for this tab? Suggest correction